ISO-10303-21;
HEADER;
FILE_DESCRIPTION (( 'STEP AP214' ),
    '1' );
FILE_NAME ('D1200560-v1_Type-02_BASE OF Cu CLAMP.STEP',
    '2012-10-30T20:00:27',
    ( '' ),
    ( '' ),
    'SwSTEP 2.0',
    'SolidWorks 2012',
    '' );
FILE_SCHEMA (( 'AUTOMOTIVE_DESIGN' ));
ENDSEC;

DATA;
#1 = CARTESIAN_POINT ( 'NONE',  ( 0.0000000000000000000, 0.2750000000000000200, 0.1250000000000000000 ) ) ;
#2 = DIRECTION ( 'NONE',  ( -0.0000000000000000000, 0.0000000000000000000, -1.000000000000000000 ) ) ;
#3 = PLANE ( 'NONE',  #96 ) ;
#4 = PLANE ( 'NONE',  #159 ) ;
#5 = DIRECTION ( 'NONE',  ( 0.0000000000000000000, -1.000000000000000000, 0.0000000000000000000 ) ) ;
#6 = DIRECTION ( 'NONE',  ( -1.000000000000000000, 0.0000000000000000000, 0.0000000000000000000 ) ) ;
#7 = CARTESIAN_POINT ( 'NONE',  ( 0.0000000000000000000, 0.2281249999999999700, 0.1250000000000000000 ) ) ;
#8 = CARTESIAN_POINT ( 'NONE',  ( -0.04687500000000009700, 0.0000000000000000000, 0.1250000000000000000 ) ) ;
#9 = CARTESIAN_POINT ( 'NONE',  ( -0.1256249999999998500, 0.07817499999999999400, 0.1250000000000000000 ) ) ;
#10 = DIRECTION ( 'NONE',  ( -0.0000000000000000000, -0.0000000000000000000, -1.000000000000000000 ) ) ;
#11 = DIRECTION ( 'NONE',  ( -1.000000000000000000, 0.0000000000000000000, 0.0000000000000000000 ) ) ;
#12 = DIRECTION ( 'NONE',  ( 0.4472135954999585900, 0.4472135954999589300, -0.7745966692414824100 ) ) ;
#13 = DIRECTION ( 'NONE',  ( 1.000000000000000000, 0.0000000000000000000, 0.0000000000000000000 ) ) ;
#14 = CARTESIAN_POINT ( 'NONE',  ( 0.0000000000000000000, 0.0000000000000000000, 0.1250000000000000000 ) ) ;
#15 = FILL_AREA_STYLE_COLOUR ( '', #310 ) ;
#16 = CARTESIAN_POINT ( 'NONE',  ( -0.09250000000000027600, 0.1824999999999997700, 0.2040248180953301000 ) ) ;
#17 = CARTESIAN_POINT ( 'NONE',  ( -0.1256249999999998500, 0.07817499999999999400, 0.0000000000000000000 ) ) ;
#18 = DIRECTION ( 'NONE',  ( -0.0000000000000000000, -0.0000000000000000000, 1.000000000000000000 ) ) ;
#19 = DIRECTION ( 'NONE',  ( 1.000000000000000000, 0.0000000000000000000, 0.0000000000000000000 ) ) ;
#20 = CARTESIAN_POINT ( 'NONE',  ( -0.1606249999999998000, 0.07817499999999999400, 0.1250000000000000000 ) ) ;
#21 = FILL_AREA_STYLE ('',( #15 ) ) ;
#22 = SURFACE_SIDE_STYLE ('',( #312 ) ) ;
#23 = SURFACE_STYLE_USAGE ( .BOTH. , #22 ) ;
#24 =( LENGTH_UNIT ( ) NAMED_UNIT ( * ) SI_UNIT ( $, .METRE. ) );
#25 =( CONVERSION_BASED_UNIT ( 'INCH', #308 ) LENGTH_UNIT ( ) NAMED_UNIT ( #118 ) );
#26 =( NAMED_UNIT ( * ) PLANE_ANGLE_UNIT ( ) SI_UNIT ( $, .RADIAN. ) );
#27 =( NAMED_UNIT ( * ) SI_UNIT ( $, .STERADIAN. ) SOLID_ANGLE_UNIT ( ) );
#28 = CARTESIAN_POINT ( 'NONE',  ( -0.09062499999999992800, 0.07817499999999999400, 0.1250000000000000000 ) ) ;
#29 = CARTESIAN_POINT ( 'NONE',  ( 0.0000000000000000000, 0.2750000000000000200, 0.1250000000000000000 ) ) ;
#30 = DIRECTION ( 'NONE',  ( 0.0000000000000000000, -0.0000000000000000000, -1.000000000000000000 ) ) ;
#31 = DIRECTION ( 'NONE',  ( 0.0000000000000000000, 0.0000000000000000000, 1.000000000000000000 ) ) ;
#32 = CARTESIAN_POINT ( 'NONE',  ( 0.0000000000000000000, 0.0000000000000000000, 0.0000000000000000000 ) ) ;
#33 = DIRECTION ( 'NONE',  ( 0.0000000000000000000, 0.0000000000000000000, 1.000000000000000000 ) ) ;
#34 = DIRECTION ( 'NONE',  ( 0.0000000000000000000, -0.0000000000000000000, -1.000000000000000000 ) ) ;
#35 = CARTESIAN_POINT ( 'NONE',  ( 0.0000000000000000000, 0.0000000000000000000, 0.0000000000000000000 ) ) ;
#36 = DIRECTION ( 'NONE',  ( 0.0000000000000000000, 0.0000000000000000000, 1.000000000000000000 ) ) ;
#37 = DIRECTION ( 'NONE',  ( 1.000000000000000000, 0.0000000000000000000, 0.0000000000000000000 ) ) ;
#38 = PRODUCT_CONTEXT ( 'NONE', #248, 'mechanical' ) ;
#39 = APPLICATION_CONTEXT ( 'automotive_design' ) ;
#40 = APPLICATION_PROTOCOL_DEFINITION ( 'draft international standard', 'automotive_design', 1998, #39 ) ;
#41 = STYLED_ITEM ( 'NONE', ( #276 ), #189 ) ;
#42 = PRESENTATION_LAYER_ASSIGNMENT (  '', '', ( #41 ) ) ;
#43 = MECHANICAL_DESIGN_GEOMETRIC_PRESENTATION_REPRESENTATION (  '', ( #41 ), #44 ) ;
#44 =( GEOMETRIC_REPRESENTATION_CONTEXT ( 3 ) GLOBAL_UNCERTAINTY_ASSIGNED_CONTEXT ( ( #212 ) ) GLOBAL_UNIT_ASSIGNED_CONTEXT ( ( #254, #255, #256 ) ) REPRESENTATION_CONTEXT ( 'NONE', 'WORKASPACE' ) );
#45 = AXIS2_PLACEMENT_3D ( 'NONE', #35, #36, #37 ) ;
#46 = PRODUCT_DEFINITION ( 'UNKNOWN', '', #47, #193 ) ;
#47 = PRODUCT_DEFINITION_FORMATION_WITH_SPECIFIED_SOURCE ( 'ANY', '', #120, .NOT_KNOWN. ) ;
#48 = PRODUCT_RELATED_PRODUCT_CATEGORY ( 'part', '', ( #120 ) ) ;
#49 = DIMENSIONAL_EXPONENTS ( 1.000000000000000000, 0.0000000000000000000, 0.0000000000000000000, 0.0000000000000000000, 0.0000000000000000000, 0.0000000000000000000, 0.0000000000000000000 ) ;
#50 = DIMENSIONAL_EXPONENTS ( 1.000000000000000000, 0.0000000000000000000, 0.0000000000000000000, 0.0000000000000000000, 0.0000000000000000000, 0.0000000000000000000, 0.0000000000000000000 ) ;
#51 = STYLED_ITEM ( 'NONE', ( #309 ), #187 ) ;
#52 = PRESENTATION_LAYER_ASSIGNMENT (  '', '', ( #51 ) ) ;
#53 = MECHANICAL_DESIGN_GEOMETRIC_PRESENTATION_REPRESENTATION (  '', ( #51 ), #54 ) ;
#54 =( GEOMETRIC_REPRESENTATION_CONTEXT ( 3 ) GLOBAL_UNCERTAINTY_ASSIGNED_CONTEXT ( ( #190 ) ) GLOBAL_UNIT_ASSIGNED_CONTEXT ( ( #25, #26, #27 ) ) REPRESENTATION_CONTEXT ( 'NONE', 'WORKASPACE' ) );
#55 = AXIS2_PLACEMENT_3D ( 'NONE', #124, #125, #126 ) ;
#56 = AXIS2_PLACEMENT_3D ( 'NONE', #129, #130, #131 ) ;
#57 = STYLED_ITEM ( 'NONE', ( #260 ), #219 ) ;
#58 = AXIS2_PLACEMENT_3D ( 'NONE', #144, #146, #147 ) ;
#59 = PRESENTATION_LAYER_ASSIGNMENT (  '', '', ( #57 ) ) ;
#60 = MECHANICAL_DESIGN_GEOMETRIC_PRESENTATION_REPRESENTATION (  '', ( #57 ), #61 ) ;
#61 =( GEOMETRIC_REPRESENTATION_CONTEXT ( 3 ) GLOBAL_UNCERTAINTY_ASSIGNED_CONTEXT ( ( #186 ) ) GLOBAL_UNIT_ASSIGNED_CONTEXT ( ( #225, #226, #227 ) ) REPRESENTATION_CONTEXT ( 'NONE', 'WORKASPACE' ) );
#62 =( GEOMETRIC_REPRESENTATION_CONTEXT ( 3 ) GLOBAL_UNCERTAINTY_ASSIGNED_CONTEXT ( ( #188 ) ) GLOBAL_UNIT_ASSIGNED_CONTEXT ( ( #244, #245, #246 ) ) REPRESENTATION_CONTEXT ( 'NONE', 'WORKASPACE' ) );
#63 = AXIS2_PLACEMENT_3D ( 'NONE', #148, #127, #228 ) ;
#64 = PLANE ( 'NONE',  #106 ) ;
#65 = PLANE ( 'NONE',  #104 ) ;
#66 = CARTESIAN_POINT ( 'NONE',  ( 0.0000000000000000000, 0.2281249999999999700, 0.1250000000000000000 ) ) ;
#67 = CARTESIAN_POINT ( 'NONE',  ( 0.0000000000000000000, 0.0000000000000000000, 0.1250000000000000000 ) ) ;
#68 = DIRECTION ( 'NONE',  ( -1.000000000000000000, 0.0000000000000000000, 0.0000000000000000000 ) ) ;
#69 = DIRECTION ( 'NONE',  ( 0.0000000000000000000, 0.0000000000000000000, -1.000000000000000000 ) ) ;
#70 = DIRECTION ( 'NONE',  ( 2.483498176058427700E-016, -0.5000000000000013300, 0.8660254037844377100 ) ) ;
#71 = DIRECTION ( 'NONE',  ( 0.0000000000000000000, -0.8660254037844379300, -0.5000000000000014400 ) ) ;
#72 = DIRECTION ( 'NONE',  ( 1.000000000000000000, 0.0000000000000000000, 0.0000000000000000000 ) ) ;
#73 = CARTESIAN_POINT ( 'NONE',  ( -0.2374999999999999600, 0.2281249999999999400, 0.1250000000000000600 ) ) ;
#74 = CARTESIAN_POINT ( 'NONE',  ( 0.0000000000000000000, 0.2750000000000000200, 0.0000000000000000000 ) ) ;
#75 = CARTESIAN_POINT ( 'NONE',  ( 0.0000000000000000000, 0.2750000000000000200, 0.04381011839520906900 ) ) ;
#76 = CARTESIAN_POINT ( 'NONE',  ( -0.2374999999999998500, 0.0000000000000000000, 0.1250000000000000000 ) ) ;
#77 = DIRECTION ( 'NONE',  ( -4.966996352116841500E-016, 1.000000000000000000, 0.0000000000000000000 ) ) ;
#78 = DIRECTION ( 'NONE',  ( 1.000000000000000000, -0.0000000000000000000, -0.0000000000000000000 ) ) ;
#79 = CARTESIAN_POINT ( 'NONE',  ( -0.2374999999999998500, 0.0000000000000000000, 0.1250000000000000000 ) ) ;
#80 = DIRECTION ( 'NONE',  ( 1.000000000000000000, 4.966996352116841500E-016, 0.0000000000000000000 ) ) ;
#81 = DIRECTION ( 'NONE',  ( 4.966996352116841500E-016, -1.000000000000000000, 0.0000000000000000000 ) ) ;
#82 = DIRECTION ( 'NONE',  ( 0.0000000000000000000, 0.0000000000000000000, 1.000000000000000000 ) ) ;
#83 = FILL_AREA_STYLE_COLOUR ( '', #324 ) ;
#84 = PLANE ( 'NONE',  #99 ) ;
#85 = CARTESIAN_POINT ( 'NONE',  ( 0.0000000000000000000, 0.0000000000000000000, 0.1250000000000000000 ) ) ;
#86 = DIRECTION ( 'NONE',  ( 0.0000000000000000000, 1.000000000000000000, 0.0000000000000000000 ) ) ;
#87 = DIRECTION ( 'NONE',  ( 0.0000000000000000000, 0.0000000000000000000, 1.000000000000000000 ) ) ;
#88 = CARTESIAN_POINT ( 'NONE',  ( -0.1256249999999998500, 0.07817499999999999400, 0.1250000000000000000 ) ) ;
#89 = FILL_AREA_STYLE ('',( #83 ) ) ;
#90 = SURFACE_SIDE_STYLE ('',( #330 ) ) ;
#91 = SURFACE_STYLE_USAGE ( .BOTH. , #90 ) ;
#92 =( LENGTH_UNIT ( ) NAMED_UNIT ( * ) SI_UNIT ( $, .METRE. ) );
#93 =( CONVERSION_BASED_UNIT ( 'INCH', #270 ) LENGTH_UNIT ( ) NAMED_UNIT ( #117 ) );
#94 =( NAMED_UNIT ( * ) PLANE_ANGLE_UNIT ( ) SI_UNIT ( $, .RADIAN. ) );
#95 =( NAMED_UNIT ( * ) SI_UNIT ( $, .STERADIAN. ) SOLID_ANGLE_UNIT ( ) );
#96 = AXIS2_PLACEMENT_3D ( 'NONE', #1, #119, #2 ) ;
#97 = AXIS2_PLACEMENT_3D ( 'NONE', #79, #80, #81 ) ;
#98 = STYLED_ITEM ( 'NONE', ( #331 ), #113 ) ;
#99 = AXIS2_PLACEMENT_3D ( 'NONE', #85, #86, #87 ) ;
#100 = PRESENTATION_LAYER_ASSIGNMENT (  '', '', ( #98 ) ) ;
#101 = MECHANICAL_DESIGN_GEOMETRIC_PRESENTATION_REPRESENTATION (  '', ( #98 ), #102 ) ;
#102 =( GEOMETRIC_REPRESENTATION_CONTEXT ( 3 ) GLOBAL_UNCERTAINTY_ASSIGNED_CONTEXT ( ( #191 ) ) GLOBAL_UNIT_ASSIGNED_CONTEXT ( ( #93, #94, #95 ) ) REPRESENTATION_CONTEXT ( 'NONE', 'WORKASPACE' ) );
#103 = AXIS2_PLACEMENT_3D ( 'NONE', #88, #82, #208 ) ;
#104 = AXIS2_PLACEMENT_3D ( 'NONE', #67, #68, #69 ) ;
#105 = AXIS2_PLACEMENT_3D ( 'NONE', #9, #10, #11 ) ;
#106 = AXIS2_PLACEMENT_3D ( 'NONE', #66, #71, #72 ) ;
#107 = AXIS2_PLACEMENT_3D ( 'NONE', #17, #18, #19 ) ;
#108 = ADVANCED_FACE ( 'NONE', ( #375, #373 ), #213, .T. ) ;
#109 = ADVANCED_FACE ( 'NONE', ( #332, #328 ), #4, .F. ) ;
#110 = ADVANCED_FACE ( 'NONE', ( #329 ), #3, .F. ) ;
#111 = ADVANCED_FACE ( 'NONE', ( #327 ), #217, .F. ) ;
#112 = ADVANCED_FACE ( 'NONE', ( #326 ), #84, .F. ) ;
#113 = ADVANCED_FACE ( 'NONE', ( #325 ), #269, .F. ) ;
#114 = ADVANCED_FACE ( 'NONE', ( #271 ), #65, .F. ) ;
#115 = ADVANCED_FACE ( 'NONE', ( #274 ), #64, .F. ) ;
#116 = DIMENSIONAL_EXPONENTS ( 1.000000000000000000, 0.0000000000000000000, 0.0000000000000000000, 0.0000000000000000000, 0.0000000000000000000, 0.0000000000000000000, 0.0000000000000000000 ) ;
#117 = DIMENSIONAL_EXPONENTS ( 1.000000000000000000, 0.0000000000000000000, 0.0000000000000000000, 0.0000000000000000000, 0.0000000000000000000, 0.0000000000000000000, 0.0000000000000000000 ) ;
#118 = DIMENSIONAL_EXPONENTS ( 1.000000000000000000, 0.0000000000000000000, 0.0000000000000000000, 0.0000000000000000000, 0.0000000000000000000, 0.0000000000000000000, 0.0000000000000000000 ) ;
#119 = DIRECTION ( 'NONE',  ( 0.0000000000000000000, -1.000000000000000000, -0.0000000000000000000 ) ) ;
#120 = PRODUCT ( 'D1200560-v1_Type-02_BASE OF Cu CLAMP', 'D1200560-v1_Type-02_BASE OF Cu CLAMP', '', ( #38 ) ) ;
#121 = DIRECTION ( 'NONE',  ( 0.0000000000000000000, -1.000000000000000000, -0.0000000000000000000 ) ) ;
#122 = CARTESIAN_POINT ( 'NONE',  ( 0.0000000000000000000, 0.0000000000000000000, 0.04381011839520893000 ) ) ;
#123 = DIRECTION ( 'NONE',  ( 0.0000000000000000000, 1.000000000000000000, 0.0000000000000000000 ) ) ;
#124 = CARTESIAN_POINT ( 'NONE',  ( -0.1256249999999998500, 0.07817499999999999400, 0.0000000000000000000 ) ) ;
#125 = DIRECTION ( 'NONE',  ( -0.0000000000000000000, -0.0000000000000000000, 1.000000000000000000 ) ) ;
#126 = DIRECTION ( 'NONE',  ( 1.000000000000000000, 0.0000000000000000000, 0.0000000000000000000 ) ) ;
#127 = DIRECTION ( 'NONE',  ( 0.0000000000000000000, 0.0000000000000000000, 1.000000000000000000 ) ) ;
#128 = CARTESIAN_POINT ( 'NONE',  ( -0.2374999999999998500, 0.0000000000000000000, 0.1250000000000000000 ) ) ;
#129 = CARTESIAN_POINT ( 'NONE',  ( -0.1256249999999998500, 0.07817499999999999400, 0.1250000000000000000 ) ) ;
#130 = DIRECTION ( 'NONE',  ( -0.0000000000000000000, -0.0000000000000000000, -1.000000000000000000 ) ) ;
#131 = DIRECTION ( 'NONE',  ( -1.000000000000000000, 0.0000000000000000000, 0.0000000000000000000 ) ) ;
#132 = CARTESIAN_POINT ( 'NONE',  ( 0.0000000000000000000, 0.0000000000000000000, 0.1250000000000000000 ) ) ;
#133 = DIRECTION ( 'NONE',  ( -1.000000000000000000, 0.0000000000000000000, 0.0000000000000000000 ) ) ;
#134 = DIRECTION ( 'NONE',  ( 0.0000000000000000000, -0.0000000000000000000, -1.000000000000000000 ) ) ;
#135 = CARTESIAN_POINT ( 'NONE',  ( 0.0000000000000000000, 0.0000000000000000000, 0.0000000000000000000 ) ) ;
#136 = DIRECTION ( 'NONE',  ( -1.000000000000000000, 0.0000000000000000000, 0.0000000000000000000 ) ) ;
#137 = CARTESIAN_POINT ( 'NONE',  ( -0.04687500000000009700, 0.0000000000000000000, 0.1250000000000000000 ) ) ;
#138 = DIRECTION ( 'NONE',  ( 0.5000000000000010000, -0.0000000000000000000, -0.8660254037844379300 ) ) ;
#139 = CARTESIAN_POINT ( 'NONE',  ( -0.2374999999999999900, 0.2750000000000000200, 0.1250000000000000000 ) ) ;
#140 = DIRECTION ( 'NONE',  ( 0.0000000000000000000, -0.0000000000000000000, -1.000000000000000000 ) ) ;
#141 = CARTESIAN_POINT ( 'NONE',  ( -0.2374999999999998500, 0.0000000000000000000, 0.0000000000000000000 ) ) ;
#142 = PLANE ( 'NONE',  #58 ) ;
#143 = DIRECTION ( 'NONE',  ( -4.966996352116841500E-016, 1.000000000000000000, 0.0000000000000000000 ) ) ;
#144 = CARTESIAN_POINT ( 'NONE',  ( -0.04687500000000009700, 0.0000000000000000000, 0.1250000000000000000 ) ) ;
#145 = FILL_AREA_STYLE_COLOUR ( '', #258 ) ;
#146 = DIRECTION ( 'NONE',  ( -0.8660254037844380400, -0.0000000000000000000, -0.5000000000000011100 ) ) ;
#147 = DIRECTION ( 'NONE',  ( 0.0000000000000000000, -1.000000000000000000, 0.0000000000000000000 ) ) ;
#148 = CARTESIAN_POINT ( 'NONE',  ( -0.1256249999999998500, 0.07817499999999999400, 0.1250000000000000000 ) ) ;
#149 = EDGE_CURVE ( 'NONE', #372, #296, #268, .T. ) ;
#150 = EDGE_CURVE ( 'NONE', #291, #296, #272, .T. ) ;
#151 = EDGE_CURVE ( 'NONE', #293, #290, #322, .T. ) ;
#152 = EDGE_CURVE ( 'NONE', #376, #291, #319, .T. ) ;
#153 = EDGE_CURVE ( 'NONE', #377, #378, #320, .T. ) ;
#154 = EDGE_CURVE ( 'NONE', #295, #294, #323, .T. ) ;
#155 = EDGE_CURVE ( 'NONE', #296, #295, #317, .T. ) ;
#156 = EDGE_CURVE ( 'NONE', #299, #298, #314, .T. ) ;
#157 = EDGE_CURVE ( 'NONE', #295, #376, #316, .T. ) ;
#158 = AXIS2_PLACEMENT_3D ( 'NONE', #214, #215, #216 ) ;
#159 = AXIS2_PLACEMENT_3D ( 'NONE', #210, #211, #209 ) ;
#160 = VECTOR ( 'NONE', #143, 39.37007874015748100 ) ;
#161 = VECTOR ( 'NONE', #140, 39.37007874015748100 ) ;
#162 = LINE ( 'NONE', #141, #160 ) ;
#163 = VECTOR ( 'NONE', #138, 39.37007874015748900 ) ;
#164 = LINE ( 'NONE', #139, #161 ) ;
#165 = VECTOR ( 'NONE', #136, 39.37007874015748100 ) ;
#166 = LINE ( 'NONE', #137, #163 ) ;
#167 = VECTOR ( 'NONE', #134, 39.37007874015748100 ) ;
#168 = LINE ( 'NONE', #135, #165 ) ;
#169 = VECTOR ( 'NONE', #133, 39.37007874015748100 ) ;
#170 = VECTOR ( 'NONE', #123, 39.37007874015748100 ) ;
#171 = LINE ( 'NONE', #132, #169 ) ;
#172 = LINE ( 'NONE', #122, #170 ) ;
#173 = CIRCLE ( 'NONE', #56, 0.03499999999999992000 ) ;
#174 = VECTOR ( 'NONE', #121, 39.37007874015748100 ) ;
#175 = CIRCLE ( 'NONE', #55, 0.03499999999999993400 ) ;
#176 = VECTOR ( 'NONE', #34, 39.37007874015748100 ) ;
#177 = LINE ( 'NONE', #128, #167 ) ;
#178 = VECTOR ( 'NONE', #33, 39.37007874015748100 ) ;
#179 = LINE ( 'NONE', #20, #178 ) ;
#180 = LINE ( 'NONE', #32, #174 ) ;
#181 = VECTOR ( 'NONE', #31, 39.37007874015748100 ) ;
#182 = LINE ( 'NONE', #28, #181 ) ;
#183 = LINE ( 'NONE', #29, #176 ) ;
#184 = VECTOR ( 'NONE', #30, 39.37007874015748100 ) ;
#185 = LINE ( 'NONE', #14, #184 ) ;
#186 = UNCERTAINTY_MEASURE_WITH_UNIT (LENGTH_MEASURE( 1.000000000000000100E-005 ), #225, 'distance_accuracy_value', 'NONE');
#187 = MANIFOLD_SOLID_BREP ( '<D1200560_BASE OF Cu CLAMP>-<Chamfer2>', #356 ) ;
#188 = UNCERTAINTY_MEASURE_WITH_UNIT (LENGTH_MEASURE( 1.000000000000000100E-005 ), #244, 'distance_accuracy_value', 'NONE');
#189 = ADVANCED_BREP_SHAPE_REPRESENTATION ( 'D1200560-v1_Type-02_BASE OF Cu CLAMP', ( #187, #45 ), #62 ) ;
#190 = UNCERTAINTY_MEASURE_WITH_UNIT (LENGTH_MEASURE( 1.000000000000000100E-005 ), #25, 'distance_accuracy_value', 'NONE');
#191 = UNCERTAINTY_MEASURE_WITH_UNIT (LENGTH_MEASURE( 1.000000000000000100E-005 ), #93, 'distance_accuracy_value', 'NONE');
#192 = PRODUCT_DEFINITION_SHAPE ( 'NONE', 'NONE',  #46 ) ;
#193 = PRODUCT_DEFINITION_CONTEXT ( 'detailed design', #39, 'design' ) ;
#194 = EDGE_CURVE ( 'NONE', #374, #297, #185, .T. ) ;
#195 = EDGE_CURVE ( 'NONE', #298, #377, #182, .T. ) ;
#196 = EDGE_CURVE ( 'NONE', #299, #378, #179, .T. ) ;
#197 = EDGE_CURVE ( 'NONE', #376, #290, #183, .T. ) ;
#198 = EDGE_CURVE ( 'NONE', #290, #297, #180, .T. ) ;
#199 = EDGE_CURVE ( 'NONE', #298, #299, #175, .T. ) ;
#200 = EDGE_CURVE ( 'NONE', #378, #377, #173, .T. ) ;
#201 = EDGE_CURVE ( 'NONE', #374, #376, #172, .T. ) ;
#202 = EDGE_CURVE ( 'NONE', #294, #372, #171, .T. ) ;
#203 = EDGE_CURVE ( 'NONE', #372, #292, #177, .T. ) ;
#204 = EDGE_CURVE ( 'NONE', #297, #292, #168, .T. ) ;
#205 = EDGE_CURVE ( 'NONE', #294, #374, #166, .T. ) ;
#206 = EDGE_CURVE ( 'NONE', #291, #293, #164, .T. ) ;
#207 = EDGE_CURVE ( 'NONE', #292, #293, #162, .T. ) ;
#208 = DIRECTION ( 'NONE',  ( -1.000000000000000000, 0.0000000000000000000, 0.0000000000000000000 ) ) ;
#209 = DIRECTION ( 'NONE',  ( 1.000000000000000000, 0.0000000000000000000, 0.0000000000000000000 ) ) ;
#210 = CARTESIAN_POINT ( 'NONE',  ( 0.0000000000000000000, 0.0000000000000000000, 0.1250000000000000000 ) ) ;
#211 = DIRECTION ( 'NONE',  ( 0.0000000000000000000, 0.0000000000000000000, -1.000000000000000000 ) ) ;
#212 = UNCERTAINTY_MEASURE_WITH_UNIT (LENGTH_MEASURE( 1.000000000000000100E-005 ), #254, 'distance_accuracy_value', 'NONE');
#213 = PLANE ( 'NONE',  #158 ) ;
#214 = CARTESIAN_POINT ( 'NONE',  ( 0.0000000000000000000, 0.0000000000000000000, 0.0000000000000000000 ) ) ;
#215 = DIRECTION ( 'NONE',  ( 0.0000000000000000000, 0.0000000000000000000, -1.000000000000000000 ) ) ;
#216 = DIRECTION ( 'NONE',  ( 1.000000000000000000, 0.0000000000000000000, 0.0000000000000000000 ) ) ;
#217 = PLANE ( 'NONE',  #97 ) ;
#218 = ADVANCED_FACE ( 'NONE', ( #261 ), #142, .F. ) ;
#219 = ADVANCED_FACE ( 'NONE', ( #262 ), #264, .F. ) ;
#220 = CARTESIAN_POINT ( 'NONE',  ( -0.2374999999999998500, 0.0000000000000000000, 0.0000000000000000000 ) ) ;
#221 = FILL_AREA_STYLE ('',( #145 ) ) ;
#222 = SURFACE_SIDE_STYLE ('',( #259 ) ) ;
#223 = SURFACE_STYLE_USAGE ( .BOTH. , #222 ) ;
#224 =( LENGTH_UNIT ( ) NAMED_UNIT ( * ) SI_UNIT ( $, .METRE. ) );
#225 =( CONVERSION_BASED_UNIT ( 'INCH', #257 ) LENGTH_UNIT ( ) NAMED_UNIT ( #49 ) );
#226 =( NAMED_UNIT ( * ) PLANE_ANGLE_UNIT ( ) SI_UNIT ( $, .RADIAN. ) );
#227 =( NAMED_UNIT ( * ) SI_UNIT ( $, .STERADIAN. ) SOLID_ANGLE_UNIT ( ) );
#228 = DIRECTION ( 'NONE',  ( -1.000000000000000000, 0.0000000000000000000, 0.0000000000000000000 ) ) ;
#229 = CARTESIAN_POINT ( 'NONE',  ( 0.0000000000000000000, 0.2750000000000000200, 0.0000000000000000000 ) ) ;
#230 = CARTESIAN_POINT ( 'NONE',  ( -0.2374999999999999900, 0.2750000000000000800, 0.04381011839520904100 ) ) ;
#231 = CARTESIAN_POINT ( 'NONE',  ( -0.2374999999999999900, 0.2750000000000000200, 0.0000000000000000000 ) ) ;
#232 = CARTESIAN_POINT ( 'NONE',  ( -0.04687500000000010400, 0.2281249999999999900, 0.1250000000000000000 ) ) ;
#233 = CARTESIAN_POINT ( 'NONE',  ( 0.0000000000000000000, 0.0000000000000000000, 0.0000000000000000000 ) ) ;
#234 = CARTESIAN_POINT ( 'NONE',  ( -0.04687500000000009700, 0.0000000000000000000, 0.1250000000000000000 ) ) ;
#235 = CARTESIAN_POINT ( 'NONE',  ( -0.2374999999999999600, 0.2281249999999999100, 0.1250000000000000300 ) ) ;
#236 = CARTESIAN_POINT ( 'NONE',  ( -0.09062499999999992800, 0.07817499999999999400, 0.0000000000000000000 ) ) ;
#237 = CARTESIAN_POINT ( 'NONE',  ( -0.1606249999999998000, 0.07817499999999999400, 0.0000000000000000000 ) ) ;
#238 =( LENGTH_UNIT ( ) NAMED_UNIT ( * ) SI_UNIT ( $, .METRE. ) );
#239 = CARTESIAN_POINT ( 'NONE',  ( -0.2374999999999998500, 0.0000000000000000000, 0.1250000000000000000 ) ) ;
#240 = CARTESIAN_POINT ( 'NONE',  ( 0.0000000000000000000, 0.0000000000000000000, 0.04381011839520893000 ) ) ;
#241 = CARTESIAN_POINT ( 'NONE',  ( -0.09062499999999994200, 0.07817499999999999400, 0.1250000000000000000 ) ) ;
#242 = CARTESIAN_POINT ( 'NONE',  ( 4.268512490100411300E-018, 0.2750000000000000200, 0.04381011839520892300 ) ) ;
#243 = CARTESIAN_POINT ( 'NONE',  ( -0.1606249999999997700, 0.07817499999999999400, 0.1250000000000000000 ) ) ;
#244 =( CONVERSION_BASED_UNIT ( 'INCH', #265 ) LENGTH_UNIT ( ) NAMED_UNIT ( #116 ) );
#245 =( NAMED_UNIT ( * ) PLANE_ANGLE_UNIT ( ) SI_UNIT ( $, .RADIAN. ) );
#246 =( NAMED_UNIT ( * ) SI_UNIT ( $, .STERADIAN. ) SOLID_ANGLE_UNIT ( ) );
#247 = APPLICATION_PROTOCOL_DEFINITION ( 'draft international standard', 'automotive_design', 1998, #248 ) ;
#248 = APPLICATION_CONTEXT ( 'automotive_design' ) ;
#249 = FILL_AREA_STYLE_COLOUR ( '', #277 ) ;
#250 = FILL_AREA_STYLE ('',( #249 ) ) ;
#251 = SURFACE_SIDE_STYLE ('',( #267 ) ) ;
#252 = SURFACE_STYLE_USAGE ( .BOTH. , #251 ) ;
#253 =( LENGTH_UNIT ( ) NAMED_UNIT ( * ) SI_UNIT ( $, .METRE. ) );
#254 =( CONVERSION_BASED_UNIT ( 'INCH', #263 ) LENGTH_UNIT ( ) NAMED_UNIT ( #50 ) );
#255 =( NAMED_UNIT ( * ) PLANE_ANGLE_UNIT ( ) SI_UNIT ( $, .RADIAN. ) );
#256 =( NAMED_UNIT ( * ) SI_UNIT ( $, .STERADIAN. ) SOLID_ANGLE_UNIT ( ) );
#257 = LENGTH_MEASURE_WITH_UNIT ( LENGTH_MEASURE( 0.02539999999999999900 ), #224 );
#258 = COLOUR_RGB ( '',0.5372549019607842900, 0.3490196078431372400, 0.3372549019607843400 ) ;
#259 = SURFACE_STYLE_FILL_AREA ( #221 ) ;
#260 = PRESENTATION_STYLE_ASSIGNMENT (( #223 ) ) ;
#261 = FACE_OUTER_BOUND ( 'NONE', #367, .T. ) ;
#262 = FACE_OUTER_BOUND ( 'NONE', #279, .T. ) ;
#263 = LENGTH_MEASURE_WITH_UNIT ( LENGTH_MEASURE( 0.02539999999999999900 ), #253 );
#264 = CYLINDRICAL_SURFACE ( 'NONE', #63, 0.03499999999999994800 ) ;
#265 = LENGTH_MEASURE_WITH_UNIT ( LENGTH_MEASURE( 0.02539999999999999900 ), #238 );
#266 = SHAPE_DEFINITION_REPRESENTATION ( #192, #189 ) ;
#267 = SURFACE_STYLE_FILL_AREA ( #250 ) ;
#268 = LINE ( 'NONE', #76, #273 ) ;
#269 = CYLINDRICAL_SURFACE ( 'NONE', #103, 0.03499999999999994800 ) ;
#270 = LENGTH_MEASURE_WITH_UNIT ( LENGTH_MEASURE( 0.02539999999999999900 ), #92 );
#271 = FACE_OUTER_BOUND ( 'NONE', #371, .T. ) ;
#272 = LINE ( 'NONE', #73, #275 ) ;
#273 = VECTOR ( 'NONE', #77, 39.37007874015748100 ) ;
#274 = FACE_OUTER_BOUND ( 'NONE', #306, .T. ) ;
#275 = VECTOR ( 'NONE', #70, 39.37007874015748900 ) ;
#276 = PRESENTATION_STYLE_ASSIGNMENT (( #252 ) ) ;
#277 = COLOUR_RGB ( '',0.5372549019607842900, 0.3490196078431372400, 0.3372549019607843400 ) ;
#278 = ORIENTED_EDGE ( 'NONE', *, *, #197, .T. ) ;
#279 = EDGE_LOOP ( 'NONE', ( #344, #343, #366, #365 ) ) ;
#280 = EDGE_LOOP ( 'NONE', ( #278, #302, #303, #304 ) ) ;
#281 = ORIENTED_EDGE ( 'NONE', *, *, #150, .F. ) ;
#282 = ORIENTED_EDGE ( 'NONE', *, *, #149, .T. ) ;
#283 = ORIENTED_EDGE ( 'NONE', *, *, #203, .F. ) ;
#284 = EDGE_LOOP ( 'NONE', ( #334, #333, #289, #288, #287 ) ) ;
#285 = ORIENTED_EDGE ( 'NONE', *, *, #207, .F. ) ;
#286 = ORIENTED_EDGE ( 'NONE', *, *, #206, .T. ) ;
#287 = ORIENTED_EDGE ( 'NONE', *, *, #205, .F. ) ;
#288 = ORIENTED_EDGE ( 'NONE', *, *, #194, .F. ) ;
#289 = ORIENTED_EDGE ( 'NONE', *, *, #204, .F. ) ;
#290 = VERTEX_POINT ( 'NONE', #229 ) ;
#291 = VERTEX_POINT ( 'NONE', #230 ) ;
#292 = VERTEX_POINT ( 'NONE', #220 ) ;
#293 = VERTEX_POINT ( 'NONE', #231 ) ;
#294 = VERTEX_POINT ( 'NONE', #234 ) ;
#295 = VERTEX_POINT ( 'NONE', #232 ) ;
#296 = VERTEX_POINT ( 'NONE', #235 ) ;
#297 = VERTEX_POINT ( 'NONE', #233 ) ;
#298 = VERTEX_POINT ( 'NONE', #236 ) ;
#299 = VERTEX_POINT ( 'NONE', #237 ) ;
#300 = EDGE_LOOP ( 'NONE', ( #305, #355 ) ) ;
#301 = EDGE_LOOP ( 'NONE', ( #348, #347, #346, #345 ) ) ;
#302 = ORIENTED_EDGE ( 'NONE', *, *, #151, .F. ) ;
#303 = ORIENTED_EDGE ( 'NONE', *, *, #206, .F. ) ;
#304 = ORIENTED_EDGE ( 'NONE', *, *, #152, .F. ) ;
#305 = ORIENTED_EDGE ( 'NONE', *, *, #200, .T. ) ;
#306 = EDGE_LOOP ( 'NONE', ( #360, #359, #358, #357 ) ) ;
#307 = EDGE_LOOP ( 'NONE', ( #286, #285, #283, #282, #281 ) ) ;
#308 = LENGTH_MEASURE_WITH_UNIT ( LENGTH_MEASURE( 0.02539999999999999900 ), #24 );
#309 = PRESENTATION_STYLE_ASSIGNMENT (( #23 ) ) ;
#310 = COLOUR_RGB ( '',0.5372549019607842900, 0.3490196078431372400, 0.3372549019607843400 ) ;
#311 = VECTOR ( 'NONE', #12, 39.37007874015748900 ) ;
#312 = SURFACE_STYLE_FILL_AREA ( #21 ) ;
#313 = VECTOR ( 'NONE', #13, 39.37007874015748100 ) ;
#314 = CIRCLE ( 'NONE', #107, 0.03499999999999993400 ) ;
#315 = VECTOR ( 'NONE', #5, 39.37007874015748100 ) ;
#316 = LINE ( 'NONE', #16, #311 ) ;
#317 = LINE ( 'NONE', #7, #313 ) ;
#318 = VECTOR ( 'NONE', #6, 39.37007874015748100 ) ;
#319 = LINE ( 'NONE', #75, #318 ) ;
#320 = CIRCLE ( 'NONE', #105, 0.03499999999999992000 ) ;
#321 = VECTOR ( 'NONE', #78, 39.37007874015748100 ) ;
#322 = LINE ( 'NONE', #74, #321 ) ;
#323 = LINE ( 'NONE', #8, #315 ) ;
#324 = COLOUR_RGB ( '',0.5372549019607842900, 0.3490196078431372400, 0.3372549019607843400 ) ;
#325 = FACE_OUTER_BOUND ( 'NONE', #369, .T. ) ;
#326 = FACE_OUTER_BOUND ( 'NONE', #284, .T. ) ;
#327 = FACE_OUTER_BOUND ( 'NONE', #307, .T. ) ;
#328 = FACE_OUTER_BOUND ( 'NONE', #370, .T. ) ;
#329 = FACE_OUTER_BOUND ( 'NONE', #280, .T. ) ;
#330 = SURFACE_STYLE_FILL_AREA ( #89 ) ;
#331 = PRESENTATION_STYLE_ASSIGNMENT (( #91 ) ) ;
#332 = FACE_BOUND ( 'NONE', #300, .T. ) ;
#333 = ORIENTED_EDGE ( 'NONE', *, *, #203, .T. ) ;
#334 = ORIENTED_EDGE ( 'NONE', *, *, #202, .T. ) ;
#335 = ORIENTED_EDGE ( 'NONE', *, *, #201, .F. ) ;
#336 = ORIENTED_EDGE ( 'NONE', *, *, #197, .F. ) ;
#337 = ORIENTED_EDGE ( 'NONE', *, *, #198, .F. ) ;
#338 = ORIENTED_EDGE ( 'NONE', *, *, #194, .T. ) ;
#339 = ORIENTED_EDGE ( 'NONE', *, *, #196, .F. ) ;
#340 = ORIENTED_EDGE ( 'NONE', *, *, #200, .F. ) ;
#341 = ORIENTED_EDGE ( 'NONE', *, *, #199, .F. ) ;
#342 = ORIENTED_EDGE ( 'NONE', *, *, #195, .T. ) ;
#343 = ORIENTED_EDGE ( 'NONE', *, *, #156, .F. ) ;
#344 = ORIENTED_EDGE ( 'NONE', *, *, #195, .F. ) ;
#345 = ORIENTED_EDGE ( 'NONE', *, *, #151, .T. ) ;
#346 = ORIENTED_EDGE ( 'NONE', *, *, #207, .T. ) ;
#347 = ORIENTED_EDGE ( 'NONE', *, *, #204, .T. ) ;
#348 = ORIENTED_EDGE ( 'NONE', *, *, #198, .T. ) ;
#349 = ORIENTED_EDGE ( 'NONE', *, *, #199, .T. ) ;
#350 = ORIENTED_EDGE ( 'NONE', *, *, #156, .T. ) ;
#351 = ORIENTED_EDGE ( 'NONE', *, *, #155, .F. ) ;
#352 = ORIENTED_EDGE ( 'NONE', *, *, #154, .F. ) ;
#353 = ORIENTED_EDGE ( 'NONE', *, *, #202, .F. ) ;
#354 = ORIENTED_EDGE ( 'NONE', *, *, #149, .F. ) ;
#355 = ORIENTED_EDGE ( 'NONE', *, *, #153, .T. ) ;
#356 = CLOSED_SHELL ( 'NONE', ( #113, #114, #112, #111, #110, #109, #108, #219, #218, #115 ) ) ;
#357 = ORIENTED_EDGE ( 'NONE', *, *, #152, .T. ) ;
#358 = ORIENTED_EDGE ( 'NONE', *, *, #157, .T. ) ;
#359 = ORIENTED_EDGE ( 'NONE', *, *, #155, .T. ) ;
#360 = ORIENTED_EDGE ( 'NONE', *, *, #150, .T. ) ;
#361 = ORIENTED_EDGE ( 'NONE', *, *, #157, .F. ) ;
#362 = ORIENTED_EDGE ( 'NONE', *, *, #201, .T. ) ;
#363 = ORIENTED_EDGE ( 'NONE', *, *, #205, .T. ) ;
#364 = ORIENTED_EDGE ( 'NONE', *, *, #154, .T. ) ;
#365 = ORIENTED_EDGE ( 'NONE', *, *, #153, .F. ) ;
#366 = ORIENTED_EDGE ( 'NONE', *, *, #196, .T. ) ;
#367 = EDGE_LOOP ( 'NONE', ( #364, #363, #362, #361 ) ) ;
#368 = EDGE_LOOP ( 'NONE', ( #350, #349 ) ) ;
#369 = EDGE_LOOP ( 'NONE', ( #341, #342, #340, #339 ) ) ;
#370 = EDGE_LOOP ( 'NONE', ( #354, #353, #352, #351 ) ) ;
#371 = EDGE_LOOP ( 'NONE', ( #338, #337, #336, #335 ) ) ;
#372 = VERTEX_POINT ( 'NONE', #239 ) ;
#373 = FACE_OUTER_BOUND ( 'NONE', #301, .T. ) ;
#374 = VERTEX_POINT ( 'NONE', #240 ) ;
#375 = FACE_BOUND ( 'NONE', #368, .T. ) ;
#376 = VERTEX_POINT ( 'NONE', #242 ) ;
#377 = VERTEX_POINT ( 'NONE', #241 ) ;
#378 = VERTEX_POINT ( 'NONE', #243 ) ;
ENDSEC;
END-ISO-10303-21;
