ISO-10303-21;
HEADER;
FILE_DESCRIPTION (( 'STEP AP214' ),
    '1' );
FILE_NAME ('D1101071-v1_lowerbladeclamp_lowerside_angled_3.5degree.STEP',
    '2011-06-03T16:29:52',
    ( '' ),
    ( '' ),
    'SwSTEP 2.0',
    'SolidWorks 2010',
    '' );
FILE_SCHEMA (( 'AUTOMOTIVE_DESIGN' ));
ENDSEC;

DATA;
#1 = EDGE_CURVE ( 'NONE', #289, #269, #151, .T. ) ;
#2 = EDGE_CURVE ( 'NONE', #325, #220, #64, .T. ) ;
#3 = PRODUCT_DEFINITION ( 'UNKNOWN', '', #42, #182 ) ;
#4 = AXIS2_PLACEMENT_3D ( 'NONE', #302, #301, #300 ) ;
#5 = AXIS2_PLACEMENT_3D ( 'NONE', #311, #306, #304 ) ;
#6 = AXIS2_PLACEMENT_3D ( 'NONE', #232, #244, #219 ) ;
#7 = AXIS2_PLACEMENT_3D ( 'NONE', #313, #324, #321 ) ;
#8 = EDGE_CURVE ( 'NONE', #327, #237, #144, .T. ) ;
#9 = AXIS2_PLACEMENT_3D ( 'NONE', #339, #317, #316 ) ;
#10 = AXIS2_PLACEMENT_3D ( 'NONE', #330, #323, #322 ) ;
#11 = AXIS2_PLACEMENT_3D ( 'NONE', #204, #354, #206 ) ;
#12 = AXIS2_PLACEMENT_3D ( 'NONE', #337, #239, #214 ) ;
#13 = AXIS2_PLACEMENT_3D ( 'NONE', #344, #343, #341 ) ;
#14 = AXIS2_PLACEMENT_3D ( 'NONE', #353, #348, #347 ) ;
#15 = AXIS2_PLACEMENT_3D ( 'NONE', #356, #207, #208 ) ;
#16 = AXIS2_PLACEMENT_3D ( 'NONE', #240, #243, #319 ) ;
#17 = MECHANICAL_DESIGN_GEOMETRIC_PRESENTATION_REPRESENTATION (  '', ( #19 ), #49 ) ;
#18 = PRESENTATION_LAYER_ASSIGNMENT (  '', '', ( #19 ) ) ;
#19 = STYLED_ITEM ( 'NONE', ( #63 ), #188 ) ;
#20 = AXIS2_PLACEMENT_3D ( 'NONE', #329, #254, #233 ) ;
#21 = PRESENTATION_LAYER_ASSIGNMENT (  '', '', ( #22 ) ) ;
#22 = STYLED_ITEM ( 'NONE', ( #107 ), #190 ) ;
#23 = MECHANICAL_DESIGN_GEOMETRIC_PRESENTATION_REPRESENTATION (  '', ( #22 ), #103 ) ;
#24 = EDGE_CURVE ( 'NONE', #269, #217, #145, .T. ) ;
#25 = EDGE_CURVE ( 'NONE', #269, #223, #146, .T. ) ;
#26 = AXIS2_PLACEMENT_3D ( 'NONE', #335, #332, #209 ) ;
#27 = EDGE_CURVE ( 'NONE', #334, #289, #142, .T. ) ;
#28 = PRODUCT_RELATED_PRODUCT_CATEGORY ( 'part', '', ( #185 ) ) ;
#29 = EDGE_CURVE ( 'NONE', #281, #220, #184, .T. ) ;
#30 = EDGE_CURVE ( 'NONE', #223, #216, #139, .T. ) ;
#31 = EDGE_CURVE ( 'NONE', #237, #312, #140, .T. ) ;
#32 = EDGE_CURVE ( 'NONE', #237, #327, #130, .T. ) ;
#33 = EDGE_CURVE ( 'NONE', #259, #289, #131, .T. ) ;
#34 = AXIS2_PLACEMENT_3D ( 'NONE', #258, #257, #256 ) ;
#35 = EDGE_CURVE ( 'NONE', #259, #288, #135, .T. ) ;
#36 = EDGE_CURVE ( 'NONE', #327, #318, #132, .T. ) ;
#37 = EDGE_CURVE ( 'NONE', #325, #268, #124, .T. ) ;
#38 = EDGE_CURVE ( 'NONE', #216, #288, #128, .T. ) ;
#39 = EDGE_CURVE ( 'NONE', #268, #325, #121, .T. ) ;
#40 = EDGE_CURVE ( 'NONE', #318, #312, #179, .T. ) ;
#41 = EDGE_CURVE ( 'NONE', #220, #281, #181, .T. ) ;
#42 = PRODUCT_DEFINITION_FORMATION_WITH_SPECIFIED_SOURCE ( 'ANY', '', #185, .NOT_KNOWN. ) ;
#43 = EDGE_CURVE ( 'NONE', #312, #318, #183, .T. ) ;
#44 = EDGE_CURVE ( 'NONE', #217, #259, #122, .T. ) ;
#45 = EDGE_CURVE ( 'NONE', #217, #216, #118, .T. ) ;
#46 = EDGE_CURVE ( 'NONE', #288, #334, #116, .T. ) ;
#47 = EDGE_CURVE ( 'NONE', #223, #334, #114, .T. ) ;
#48 = EDGE_CURVE ( 'NONE', #268, #281, #112, .T. ) ;
#49 =( GEOMETRIC_REPRESENTATION_CONTEXT ( 3 ) GLOBAL_UNCERTAINTY_ASSIGNED_CONTEXT ( ( #187 ) ) GLOBAL_UNIT_ASSIGNED_CONTEXT ( ( #262, #261, #260 ) ) REPRESENTATION_CONTEXT ( 'NONE', 'WORKASPACE' ) );
#50 = ORIENTED_EDGE ( 'NONE', *, *, #45, .F. ) ;
#51 = ORIENTED_EDGE ( 'NONE', *, *, #33, .F. ) ;
#52 = ORIENTED_EDGE ( 'NONE', *, *, #44, .F. ) ;
#53 = ORIENTED_EDGE ( 'NONE', *, *, #2, .T. ) ;
#54 = ORIENTED_EDGE ( 'NONE', *, *, #39, .T. ) ;
#55 = ORIENTED_EDGE ( 'NONE', *, *, #41, .T. ) ;
#56 = LENGTH_MEASURE_WITH_UNIT ( LENGTH_MEASURE( 0.02539999999999999900 ), #263 );
#57 = ORIENTED_EDGE ( 'NONE', *, *, #48, .F. ) ;
#58 = ORIENTED_EDGE ( 'NONE', *, *, #36, .F. ) ;
#59 = ORIENTED_EDGE ( 'NONE', *, *, #33, .T. ) ;
#60 = SURFACE_STYLE_FILL_AREA ( #267 ) ;
#61 = COLOUR_RGB ( '',1.000000000000000000, 0.0000000000000000000, 0.0000000000000000000 ) ;
#62 =( GEOMETRIC_REPRESENTATION_CONTEXT ( 3 ) GLOBAL_UNCERTAINTY_ASSIGNED_CONTEXT ( ( #189 ) ) GLOBAL_UNIT_ASSIGNED_CONTEXT ( ( #278, #275, #274 ) ) REPRESENTATION_CONTEXT ( 'NONE', 'WORKASPACE' ) );
#63 = PRESENTATION_STYLE_ASSIGNMENT (( #264 ) ) ;
#64 = LINE ( 'NONE', #230, #149 ) ;
#65 = ORIENTED_EDGE ( 'NONE', *, *, #30, .T. ) ;
#66 = ORIENTED_EDGE ( 'NONE', *, *, #47, .F. ) ;
#67 = ORIENTED_EDGE ( 'NONE', *, *, #41, .F. ) ;
#68 = ORIENTED_EDGE ( 'NONE', *, *, #29, .F. ) ;
#69 = ORIENTED_EDGE ( 'NONE', *, *, #1, .T. ) ;
#70 = ORIENTED_EDGE ( 'NONE', *, *, #30, .F. ) ;
#71 = ORIENTED_EDGE ( 'NONE', *, *, #27, .F. ) ;
#72 = ORIENTED_EDGE ( 'NONE', *, *, #24, .F. ) ;
#73 = ORIENTED_EDGE ( 'NONE', *, *, #35, .T. ) ;
#74 = ORIENTED_EDGE ( 'NONE', *, *, #38, .F. ) ;
#75 = ORIENTED_EDGE ( 'NONE', *, *, #46, .F. ) ;
#76 = ORIENTED_EDGE ( 'NONE', *, *, #35, .F. ) ;
#77 = LENGTH_MEASURE_WITH_UNIT ( LENGTH_MEASURE( 0.02539999999999999900 ), #279 );
#78 = FACE_OUTER_BOUND ( 'NONE', #163, .T. ) ;
#79 = FACE_BOUND ( 'NONE', #154, .T. ) ;
#80 = CYLINDRICAL_SURFACE ( 'NONE', #12, 0.08499999999999997800 ) ;
#81 = FACE_OUTER_BOUND ( 'NONE', #156, .T. ) ;
#82 = ORIENTED_EDGE ( 'NONE', *, *, #24, .T. ) ;
#83 = FACE_BOUND ( 'NONE', #159, .T. ) ;
#84 = ORIENTED_EDGE ( 'NONE', *, *, #45, .T. ) ;
#85 = ORIENTED_EDGE ( 'NONE', *, *, #37, .F. ) ;
#86 = ORIENTED_EDGE ( 'NONE', *, *, #40, .T. ) ;
#87 = FACE_OUTER_BOUND ( 'NONE', #155, .T. ) ;
#88 = ORIENTED_EDGE ( 'NONE', *, *, #36, .T. ) ;
#89 = ORIENTED_EDGE ( 'NONE', *, *, #32, .T. ) ;
#90 = FACE_BOUND ( 'NONE', #162, .T. ) ;
#91 = ORIENTED_EDGE ( 'NONE', *, *, #31, .F. ) ;
#92 = ORIENTED_EDGE ( 'NONE', *, *, #39, .F. ) ;
#93 = ORIENTED_EDGE ( 'NONE', *, *, #43, .F. ) ;
#94 = ORIENTED_EDGE ( 'NONE', *, *, #31, .T. ) ;
#95 = ORIENTED_EDGE ( 'NONE', *, *, #40, .F. ) ;
#96 = CYLINDRICAL_SURFACE ( 'NONE', #7, 0.08499999999999997800 ) ;
#97 = FACE_OUTER_BOUND ( 'NONE', #164, .T. ) ;
#98 = FACE_OUTER_BOUND ( 'NONE', #161, .T. ) ;
#99 = FACE_OUTER_BOUND ( 'NONE', #153, .T. ) ;
#100 = FACE_BOUND ( 'NONE', #158, .T. ) ;
#101 = FACE_OUTER_BOUND ( 'NONE', #167, .T. ) ;
#102 = CYLINDRICAL_SURFACE ( 'NONE', #16, 0.08499999999999997800 ) ;
#103 =( GEOMETRIC_REPRESENTATION_CONTEXT ( 3 ) GLOBAL_UNCERTAINTY_ASSIGNED_CONTEXT ( ( #186 ) ) GLOBAL_UNIT_ASSIGNED_CONTEXT ( ( #228, #226, #225 ) ) REPRESENTATION_CONTEXT ( 'NONE', 'WORKASPACE' ) );
#104 = ORIENTED_EDGE ( 'NONE', *, *, #46, .T. ) ;
#105 = LENGTH_MEASURE_WITH_UNIT ( LENGTH_MEASURE( 0.02539999999999999900 ), #231 );
#106 = ORIENTED_EDGE ( 'NONE', *, *, #8, .F. ) ;
#107 = PRESENTATION_STYLE_ASSIGNMENT (( #235 ) ) ;
#108 = SURFACE_STYLE_FILL_AREA ( #238 ) ;
#109 = FACE_OUTER_BOUND ( 'NONE', #165, .T. ) ;
#110 = COLOUR_RGB ( '',1.000000000000000000, 0.0000000000000000000, 0.0000000000000000000 ) ;
#111 = VECTOR ( 'NONE', #241, 39.37007874015748100 ) ;
#112 = LINE ( 'NONE', #242, #111 ) ;
#113 = VECTOR ( 'NONE', #245, 39.37007874015748100 ) ;
#114 = LINE ( 'NONE', #246, #113 ) ;
#115 = VECTOR ( 'NONE', #253, 39.37007874015748100 ) ;
#116 = LINE ( 'NONE', #265, #115 ) ;
#117 = VECTOR ( 'NONE', #271, 39.37007874015748100 ) ;
#118 = LINE ( 'NONE', #272, #117 ) ;
#119 = VECTOR ( 'NONE', #305, 39.37007874015748100 ) ;
#120 = CYLINDRICAL_SURFACE ( 'NONE', #15, 0.08499999999999997800 ) ;
#121 = CIRCLE ( 'NONE', #26, 0.08499999999999997800 ) ;
#122 = LINE ( 'NONE', #307, #119 ) ;
#123 = VECTOR ( 'NONE', #359, 39.37007874015748100 ) ;
#124 = CIRCLE ( 'NONE', #20, 0.08499999999999997800 ) ;
#125 = FACE_OUTER_BOUND ( 'NONE', #166, .T. ) ;
#126 = FACE_OUTER_BOUND ( 'NONE', #157, .T. ) ;
#127 = VECTOR ( 'NONE', #215, 39.37007874015748100 ) ;
#128 = LINE ( 'NONE', #213, #147 ) ;
#129 = VECTOR ( 'NONE', #227, 39.37007874015748100 ) ;
#130 = CIRCLE ( 'NONE', #6, 0.08499999999999997800 ) ;
#131 = LINE ( 'NONE', #249, #137 ) ;
#132 = LINE ( 'NONE', #336, #127 ) ;
#133 = SHAPE_DEFINITION_REPRESENTATION ( #180, #188 ) ;
#134 = ORIENTED_EDGE ( 'NONE', *, *, #44, .T. ) ;
#135 = LINE ( 'NONE', #273, #129 ) ;
#136 = VECTOR ( 'NONE', #255, 39.37007874015748100 ) ;
#137 = VECTOR ( 'NONE', #224, 39.37007874015748100 ) ;
#138 = ORIENTED_EDGE ( 'NONE', *, *, #25, .F. ) ;
#139 = LINE ( 'NONE', #345, #152 ) ;
#140 = LINE ( 'NONE', #315, #136 ) ;
#141 = VECTOR ( 'NONE', #276, 39.37007874015748100 ) ;
#142 = LINE ( 'NONE', #282, #141 ) ;
#143 = VECTOR ( 'NONE', #280, 39.37007874015748100 ) ;
#144 = CIRCLE ( 'NONE', #11, 0.08499999999999997800 ) ;
#145 = LINE ( 'NONE', #222, #123 ) ;
#146 = LINE ( 'NONE', #221, #143 ) ;
#147 = VECTOR ( 'NONE', #218, 39.37007874015748100 ) ;
#148 = ORIENTED_EDGE ( 'NONE', *, *, #32, .F. ) ;
#149 = VECTOR ( 'NONE', #342, 39.37007874015748100 ) ;
#150 = VECTOR ( 'NONE', #283, 39.37007874015748100 ) ;
#151 = LINE ( 'NONE', #234, #150 ) ;
#152 = VECTOR ( 'NONE', #212, 39.37007874015748100 ) ;
#153 = EDGE_LOOP ( 'NONE', ( #52, #72, #160, #51 ) ) ;
#154 = EDGE_LOOP ( 'NONE', ( #92, #85 ) ) ;
#155 = EDGE_LOOP ( 'NONE', ( #171, #172, #173, #174 ) ) ;
#156 = EDGE_LOOP ( 'NONE', ( #71, #75, #76, #59 ) ) ;
#157 = EDGE_LOOP ( 'NONE', ( #54, #53, #55, #57 ) ) ;
#158 = EDGE_LOOP ( 'NONE', ( #68, #67 ) ) ;
#159 = EDGE_LOOP ( 'NONE', ( #148, #106 ) ) ;
#160 = ORIENTED_EDGE ( 'NONE', *, *, #1, .F. ) ;
#161 = EDGE_LOOP ( 'NONE', ( #138, #82, #84, #70 ) ) ;
#162 = EDGE_LOOP ( 'NONE', ( #93, #95 ) ) ;
#163 = EDGE_LOOP ( 'NONE', ( #74, #50, #134, #73 ) ) ;
#164 = EDGE_LOOP ( 'NONE', ( #58, #170, #94, #168 ) ) ;
#165 = EDGE_LOOP ( 'NONE', ( #104, #66, #65, #169 ) ) ;
#166 = EDGE_LOOP ( 'NONE', ( #175, #176, #177, #69 ) ) ;
#167 = EDGE_LOOP ( 'NONE', ( #89, #88, #86, #91 ) ) ;
#168 = ORIENTED_EDGE ( 'NONE', *, *, #43, .T. ) ;
#169 = ORIENTED_EDGE ( 'NONE', *, *, #38, .T. ) ;
#170 = ORIENTED_EDGE ( 'NONE', *, *, #8, .T. ) ;
#171 = ORIENTED_EDGE ( 'NONE', *, *, #2, .F. ) ;
#172 = ORIENTED_EDGE ( 'NONE', *, *, #37, .T. ) ;
#173 = ORIENTED_EDGE ( 'NONE', *, *, #48, .T. ) ;
#174 = ORIENTED_EDGE ( 'NONE', *, *, #29, .T. ) ;
#175 = ORIENTED_EDGE ( 'NONE', *, *, #25, .T. ) ;
#176 = ORIENTED_EDGE ( 'NONE', *, *, #47, .T. ) ;
#177 = ORIENTED_EDGE ( 'NONE', *, *, #27, .T. ) ;
#178 = CLOSED_SHELL ( 'NONE', ( #191, #193, #203, #200, #202, #198, #194, #201, #196, #195 ) ) ;
#179 =( BOUNDED_CURVE ( )  B_SPLINE_CURVE ( 3, ( #205, #210, #211, #351 ),
 .UNSPECIFIED., .F., .T. ) 
 B_SPLINE_CURVE_WITH_KNOTS ( ( 4, 4 ),
 ( 0.0000000000000000000, 3.141592653589793100 ),
 .UNSPECIFIED. ) 
 CURVE ( )  GEOMETRIC_REPRESENTATION_ITEM ( )  RATIONAL_B_SPLINE_CURVE ( ( 1.000000000000000000, 0.3333333333333333700, 0.3333333333333333700, 1.000000000000000000 ) ) 
 REPRESENTATION_ITEM ( '' )  );
#180 = PRODUCT_DEFINITION_SHAPE ( 'NONE', 'NONE',  #3 ) ;
#181 =( BOUNDED_CURVE ( )  B_SPLINE_CURVE ( 3, ( #229, #358, #357, #355 ),
 .UNSPECIFIED., .F., .F. ) 
 B_SPLINE_CURVE_WITH_KNOTS ( ( 4, 4 ),
 ( 0.0000000000000000000, 3.141592653589793100 ),
 .UNSPECIFIED. ) 
 CURVE ( )  GEOMETRIC_REPRESENTATION_ITEM ( )  RATIONAL_B_SPLINE_CURVE ( ( 1.000000000000000000, 0.3333333333333333700, 0.3333333333333333700, 1.000000000000000000 ) ) 
 REPRESENTATION_ITEM ( '' )  );
#182 = PRODUCT_DEFINITION_CONTEXT ( 'detailed design', #248, 'design' ) ;
#183 =( BOUNDED_CURVE ( )  B_SPLINE_CURVE ( 3, ( #340, #328, #333, #338 ),
 .UNSPECIFIED., .F., .T. ) 
 B_SPLINE_CURVE_WITH_KNOTS ( ( 4, 4 ),
 ( 3.141592653589793100, 6.283185307179586200 ),
 .UNSPECIFIED. ) 
 CURVE ( )  GEOMETRIC_REPRESENTATION_ITEM ( )  RATIONAL_B_SPLINE_CURVE ( ( 1.000000000000000000, 0.3333333333333333700, 0.3333333333333333700, 1.000000000000000000 ) ) 
 REPRESENTATION_ITEM ( '' )  );
#184 =( BOUNDED_CURVE ( )  B_SPLINE_CURVE ( 3, ( #331, #277, #349, #296 ),
 .UNSPECIFIED., .F., .T. ) 
 B_SPLINE_CURVE_WITH_KNOTS ( ( 4, 4 ),
 ( 3.141592653589793100, 6.283185307179586200 ),
 .UNSPECIFIED. ) 
 CURVE ( )  GEOMETRIC_REPRESENTATION_ITEM ( )  RATIONAL_B_SPLINE_CURVE ( ( 1.000000000000000000, 0.3333333333333333700, 0.3333333333333333700, 1.000000000000000000 ) ) 
 REPRESENTATION_ITEM ( '' )  );
#185 = PRODUCT ( 'D1101071-v1_lowerbladeclamp_lowerside_angled_3.5degree', 'D1101071-v1_lowerbladeclamp_lowerside_angled_3.5degree', '', ( #250 ) ) ;
#186 = UNCERTAINTY_MEASURE_WITH_UNIT (LENGTH_MEASURE( 1.000000000000000100E-005 ), #228, 'distance_accuracy_value', 'NONE');
#187 = UNCERTAINTY_MEASURE_WITH_UNIT (LENGTH_MEASURE( 1.000000000000000100E-005 ), #262, 'distance_accuracy_value', 'NONE');
#188 = ADVANCED_BREP_SHAPE_REPRESENTATION ( 'D1101071-v1_lowerbladeclamp_lowerside_angled_3.5degree', ( #190, #34 ), #62 ) ;
#189 = UNCERTAINTY_MEASURE_WITH_UNIT (LENGTH_MEASURE( 1.000000000000000100E-005 ), #278, 'distance_accuracy_value', 'NONE');
#190 = MANIFOLD_SOLID_BREP ( 'Cut-Extrude3', #178 ) ;
#191 = ADVANCED_FACE ( 'NONE', ( #126 ), #102, .F. ) ;
#192 = DIMENSIONAL_EXPONENTS ( 1.000000000000000000, 0.0000000000000000000, 0.0000000000000000000, 0.0000000000000000000, 0.0000000000000000000, 0.0000000000000000000, 0.0000000000000000000 ) ;
#193 = ADVANCED_FACE ( 'NONE', ( #101 ), #120, .F. ) ;
#194 = ADVANCED_FACE ( 'NONE', ( #109 ), #352, .F. ) ;
#195 = ADVANCED_FACE ( 'NONE', ( #125, #100, #90 ), #346, .F. ) ;
#196 = ADVANCED_FACE ( 'NONE', ( #87 ), #80, .F. ) ;
#197 = DIMENSIONAL_EXPONENTS ( 1.000000000000000000, 0.0000000000000000000, 0.0000000000000000000, 0.0000000000000000000, 0.0000000000000000000, 0.0000000000000000000, 0.0000000000000000000 ) ;
#198 = ADVANCED_FACE ( 'NONE', ( #99 ), #326, .T. ) ;
#199 = DIMENSIONAL_EXPONENTS ( 1.000000000000000000, 0.0000000000000000000, 0.0000000000000000000, 0.0000000000000000000, 0.0000000000000000000, 0.0000000000000000000, 0.0000000000000000000 ) ;
#200 = ADVANCED_FACE ( 'NONE', ( #98 ), #350, .T. ) ;
#201 = ADVANCED_FACE ( 'NONE', ( #97 ), #96, .F. ) ;
#202 = ADVANCED_FACE ( 'NONE', ( #81 ), #310, .T. ) ;
#203 = ADVANCED_FACE ( 'NONE', ( #79, #83, #78 ), #303, .T. ) ;
#204 = CARTESIAN_POINT ( 'NONE',  ( -0.1970000000000000400, 0.0000000000000000000, -0.1968503949999999800 ) ) ;
#205 = CARTESIAN_POINT ( 'NONE',  ( -0.1970000000000000400, 0.1901589367769340700, -0.2818503949999999800 ) ) ;
#206 = DIRECTION ( 'NONE',  ( 1.000000000000000000, 1.224606353822377500E-016, 0.0000000000000000000 ) ) ;
#207 = DIRECTION ( 'NONE',  ( -0.0000000000000000000, 1.000000000000000000, -0.0000000000000000000 ) ) ;
#208 = DIRECTION ( 'NONE',  ( 0.0000000000000000000, 0.0000000000000000000, 1.000000000000000000 ) ) ;
#209 = DIRECTION ( 'NONE',  ( 1.000000000000000000, 1.224606353822377500E-016, 0.0000000000000000000 ) ) ;
#210 = CARTESIAN_POINT ( 'NONE',  ( -0.3669999999999999400, 0.1901589367769340500, -0.2818503949999999800 ) ) ;
#211 = CARTESIAN_POINT ( 'NONE',  ( -0.3669999999999999400, 0.1797612913513528300, -0.1118503950000000200 ) ) ;
#212 = DIRECTION ( 'NONE',  ( -0.0000000000000000000, -1.000000000000000000, -0.0000000000000000000 ) ) ;
#213 = CARTESIAN_POINT ( 'NONE',  ( 0.0000000000000000000, 0.0000000000000000000, 0.0000000000000000000 ) ) ;
#214 = DIRECTION ( 'NONE',  ( 0.0000000000000000000, 0.0000000000000000000, 1.000000000000000000 ) ) ;
#215 = DIRECTION ( 'NONE',  ( -0.0000000000000000000, 1.000000000000000000, -0.0000000000000000000 ) ) ;
#216 = VERTEX_POINT ( 'NONE', #309 ) ;
#217 = VERTEX_POINT ( 'NONE', #314 ) ;
#218 = DIRECTION ( 'NONE',  ( 1.000000000000000000, 1.224606353822377300E-016, -0.0000000000000000000 ) ) ;
#219 = DIRECTION ( 'NONE',  ( 1.000000000000000000, 1.224606353822377500E-016, 0.0000000000000000000 ) ) ;
#220 = VERTEX_POINT ( 'NONE', #298 ) ;
#221 = CARTESIAN_POINT ( 'NONE',  ( -0.3543307086614173000, 0.1962657959366703700, -0.3816966596745943200 ) ) ;
#222 = CARTESIAN_POINT ( 'NONE',  ( -0.3543307086614173000, -4.339156371811573000E-017, -0.3937007900000000200 ) ) ;
#223 = VERTEX_POINT ( 'NONE', #297 ) ;
#224 = DIRECTION ( 'NONE',  ( -0.0000000000000000000, 1.000000000000000000, -0.0000000000000000000 ) ) ;
#225 =( NAMED_UNIT ( * ) SI_UNIT ( $, .STERADIAN. ) SOLID_ANGLE_UNIT ( ) );
#226 =( NAMED_UNIT ( * ) PLANE_ANGLE_UNIT ( ) SI_UNIT ( $, .RADIAN. ) );
#227 = DIRECTION ( 'NONE',  ( 0.0000000000000000000, 0.0000000000000000000, 1.000000000000000000 ) ) ;
#228 =( CONVERSION_BASED_UNIT ( 'INCH', #105 ) LENGTH_UNIT ( ) NAMED_UNIT ( #197 ) );
#229 = CARTESIAN_POINT ( 'NONE',  ( 0.1969999999999999800, 0.1901589367769340700, -0.2818503949999999800 ) ) ;
#230 = CARTESIAN_POINT ( 'NONE',  ( 0.1969999999999999800, -0.8029999999999998300, -0.2818503949999999800 ) ) ;
#231 =( LENGTH_UNIT ( ) NAMED_UNIT ( * ) SI_UNIT ( $, .METRE. ) );
#232 = CARTESIAN_POINT ( 'NONE',  ( -0.1970000000000000400, 0.0000000000000000000, -0.1968503949999999800 ) ) ;
#233 = DIRECTION ( 'NONE',  ( 1.000000000000000000, 1.224606353822377500E-016, 0.0000000000000000000 ) ) ;
#234 = CARTESIAN_POINT ( 'NONE',  ( -0.3543307086614173000, 0.1970000000000000400, -0.3937007900000000200 ) ) ;
#235 = SURFACE_STYLE_USAGE ( .BOTH. , #236 ) ;
#236 = SURFACE_SIDE_STYLE ('',( #108 ) ) ;
#237 = VERTEX_POINT ( 'NONE', #320 ) ;
#238 = FILL_AREA_STYLE ('',( #308 ) ) ;
#239 = DIRECTION ( 'NONE',  ( -0.0000000000000000000, 1.000000000000000000, -0.0000000000000000000 ) ) ;
#240 = CARTESIAN_POINT ( 'NONE',  ( 0.1969999999999999800, -0.8029999999999998300, -0.1968503950000000100 ) ) ;
#241 = DIRECTION ( 'NONE',  ( -0.0000000000000000000, 1.000000000000000000, -0.0000000000000000000 ) ) ;
#242 = CARTESIAN_POINT ( 'NONE',  ( 0.1969999999999999800, -0.8029999999999998300, -0.1118503950000000500 ) ) ;
#243 = DIRECTION ( 'NONE',  ( -0.0000000000000000000, 1.000000000000000000, -0.0000000000000000000 ) ) ;
#244 = DIRECTION ( 'NONE',  ( 1.224606353822377500E-016, -1.000000000000000000, 0.0000000000000000000 ) ) ;
#245 = DIRECTION ( 'NONE',  ( 1.000000000000000000, -0.0000000000000000000, -0.0000000000000000000 ) ) ;
#246 = CARTESIAN_POINT ( 'NONE',  ( -0.6656692913385826600, 0.1729202281282870600, 0.0000000000000000000 ) ) ;
#247 = APPLICATION_PROTOCOL_DEFINITION ( 'draft international standard', 'automotive_design', 1998, #248 ) ;
#248 = APPLICATION_CONTEXT ( 'automotive_design' ) ;
#249 = CARTESIAN_POINT ( 'NONE',  ( 0.3543307086614173000, 0.1970000000000000100, -0.3937007900000000200 ) ) ;
#250 = PRODUCT_CONTEXT ( 'NONE', #252, 'mechanical' ) ;
#251 = APPLICATION_PROTOCOL_DEFINITION ( 'draft international standard', 'automotive_design', 1998, #252 ) ;
#252 = APPLICATION_CONTEXT ( 'automotive_design' ) ;
#253 = DIRECTION ( 'NONE',  ( -0.0000000000000000000, 1.000000000000000000, -0.0000000000000000000 ) ) ;
#254 = DIRECTION ( 'NONE',  ( 1.224606353822377500E-016, -1.000000000000000000, 0.0000000000000000000 ) ) ;
#255 = DIRECTION ( 'NONE',  ( -0.0000000000000000000, 1.000000000000000000, -0.0000000000000000000 ) ) ;
#256 = DIRECTION ( 'NONE',  ( 1.000000000000000000, 0.0000000000000000000, 0.0000000000000000000 ) ) ;
#257 = DIRECTION ( 'NONE',  ( 0.0000000000000000000, 0.0000000000000000000, 1.000000000000000000 ) ) ;
#258 = CARTESIAN_POINT ( 'NONE',  ( 0.0000000000000000000, 0.0000000000000000000, 0.0000000000000000000 ) ) ;
#259 = VERTEX_POINT ( 'NONE', #295 ) ;
#260 =( NAMED_UNIT ( * ) SI_UNIT ( $, .STERADIAN. ) SOLID_ANGLE_UNIT ( ) );
#261 =( NAMED_UNIT ( * ) PLANE_ANGLE_UNIT ( ) SI_UNIT ( $, .RADIAN. ) );
#262 =( CONVERSION_BASED_UNIT ( 'INCH', #56 ) LENGTH_UNIT ( ) NAMED_UNIT ( #192 ) );
#263 =( LENGTH_UNIT ( ) NAMED_UNIT ( * ) SI_UNIT ( $, .METRE. ) );
#264 = SURFACE_STYLE_USAGE ( .BOTH. , #266 ) ;
#265 = CARTESIAN_POINT ( 'NONE',  ( 0.3543307086614173000, 0.1970000000000000100, 0.0000000000000000000 ) ) ;
#266 = SURFACE_SIDE_STYLE ('',( #60 ) ) ;
#267 = FILL_AREA_STYLE ('',( #270 ) ) ;
#268 = VERTEX_POINT ( 'NONE', #294 ) ;
#269 = VERTEX_POINT ( 'NONE', #293 ) ;
#270 = FILL_AREA_STYLE_COLOUR ( '', #61 ) ;
#271 = DIRECTION ( 'NONE',  ( 0.0000000000000000000, 0.0000000000000000000, 1.000000000000000000 ) ) ;
#272 = CARTESIAN_POINT ( 'NONE',  ( -0.3543307086614173000, -4.339156371811573000E-017, -0.3937007900000000200 ) ) ;
#273 = CARTESIAN_POINT ( 'NONE',  ( 0.3543307086614173000, -2.073152488754191300E-020, -0.3937007900000000200 ) ) ;
#274 =( NAMED_UNIT ( * ) SI_UNIT ( $, .STERADIAN. ) SOLID_ANGLE_UNIT ( ) );
#275 =( NAMED_UNIT ( * ) PLANE_ANGLE_UNIT ( ) SI_UNIT ( $, .RADIAN. ) );
#276 = DIRECTION ( 'NONE',  ( -0.0000000000000000000, 0.06104853953485019800, -0.9981347984218674800 ) ) ;
#277 = CARTESIAN_POINT ( 'NONE',  ( 0.3669999999999998800, 0.1797612913513528300, -0.1118503950000000200 ) ) ;
#278 =( CONVERSION_BASED_UNIT ( 'INCH', #77 ) LENGTH_UNIT ( ) NAMED_UNIT ( #199 ) );
#279 =( LENGTH_UNIT ( ) NAMED_UNIT ( * ) SI_UNIT ( $, .METRE. ) );
#280 = DIRECTION ( 'NONE',  ( 0.0000000000000000000, -0.06104853953485019800, 0.9981347984218674800 ) ) ;
#281 = VERTEX_POINT ( 'NONE', #292 ) ;
#282 = CARTESIAN_POINT ( 'NONE',  ( 0.3543307086614173000, 0.1970000000000000100, -0.3937007900000000200 ) ) ;
#283 = DIRECTION ( 'NONE',  ( -1.000000000000000000, 4.818676322157797600E-017, -0.0000000000000000000 ) ) ;
#284 = CARTESIAN_POINT ( 'NONE',  ( 0.3543307086614173000, 0.1729202281282870600, 0.0000000000000000000 ) ) ;
#285 = CARTESIAN_POINT ( 'NONE',  ( -0.1970000000000000400, 0.0000000000000000000, -0.2818503949999999800 ) ) ;
#286 = CARTESIAN_POINT ( 'NONE',  ( 0.1969999999999999800, 0.0000000000000000000, -0.2818503949999999800 ) ) ;
#287 = CARTESIAN_POINT ( 'NONE',  ( -0.1970000000000000400, 0.1901589367769340700, -0.2818503949999999800 ) ) ;
#288 = VERTEX_POINT ( 'NONE', #291 ) ;
#289 = VERTEX_POINT ( 'NONE', #299 ) ;
#290 = CARTESIAN_POINT ( 'NONE',  ( -0.1970000000000000400, 0.1797612913513528300, -0.1118503950000000100 ) ) ;
#291 = CARTESIAN_POINT ( 'NONE',  ( 0.3543307086614173000, -2.073152488754191300E-020, 0.0000000000000000000 ) ) ;
#292 = CARTESIAN_POINT ( 'NONE',  ( 0.1969999999999999800, 0.1797612913513528300, -0.1118503950000000500 ) ) ;
#293 = CARTESIAN_POINT ( 'NONE',  ( -0.3543307086614173000, 0.1970000000000000100, -0.3937007900000000200 ) ) ;
#294 = CARTESIAN_POINT ( 'NONE',  ( 0.1969999999999999800, 0.0000000000000000000, -0.1118503950000000500 ) ) ;
#295 = CARTESIAN_POINT ( 'NONE',  ( 0.3543307086614173000, -2.073152488754191300E-020, -0.3937007900000000200 ) ) ;
#296 = CARTESIAN_POINT ( 'NONE',  ( 0.1969999999999999800, 0.1901589367769340700, -0.2818503949999999800 ) ) ;
#297 = CARTESIAN_POINT ( 'NONE',  ( -0.3543307086614173000, 0.1729202281282870600, 0.0000000000000000000 ) ) ;
#298 = CARTESIAN_POINT ( 'NONE',  ( 0.1969999999999999800, 0.1901589367769340700, -0.2818503949999999800 ) ) ;
#299 = CARTESIAN_POINT ( 'NONE',  ( 0.3543307086614173000, 0.1970000000000000100, -0.3937007900000000200 ) ) ;
#300 = DIRECTION ( 'NONE',  ( 1.000000000000000000, 1.224606353822377500E-016, 0.0000000000000000000 ) ) ;
#301 = DIRECTION ( 'NONE',  ( 1.224606353822377500E-016, -1.000000000000000000, 0.0000000000000000000 ) ) ;
#302 = CARTESIAN_POINT ( 'NONE',  ( 0.0000000000000000000, 0.0000000000000000000, -0.3937007900000000200 ) ) ;
#303 = PLANE ( 'NONE',  #4 ) ;
#304 = DIRECTION ( 'NONE',  ( -0.0000000000000000000, 0.0000000000000000000, -1.000000000000000000 ) ) ;
#305 = DIRECTION ( 'NONE',  ( 1.000000000000000000, -5.850897023817385100E-020, -0.0000000000000000000 ) ) ;
#306 = DIRECTION ( 'NONE',  ( 1.000000000000000000, 0.0000000000000000000, -0.0000000000000000000 ) ) ;
#307 = CARTESIAN_POINT ( 'NONE',  ( 0.3543307086614173000, -2.073152488754191300E-020, -0.3937007900000000200 ) ) ;
#308 = FILL_AREA_STYLE_COLOUR ( '', #110 ) ;
#309 = CARTESIAN_POINT ( 'NONE',  ( -0.3543307086614173000, -4.339156371811573000E-017, 0.0000000000000000000 ) ) ;
#310 = PLANE ( 'NONE',  #5 ) ;
#311 = CARTESIAN_POINT ( 'NONE',  ( 0.3543307086614173000, 0.1970000000000000100, -0.3937007900000000200 ) ) ;
#312 = VERTEX_POINT ( 'NONE', #290 ) ;
#313 = CARTESIAN_POINT ( 'NONE',  ( -0.1970000000000000400, -0.8029999999999998300, -0.1968503949999999800 ) ) ;
#314 = CARTESIAN_POINT ( 'NONE',  ( -0.3543307086614173000, -4.339156371811573000E-017, -0.3937007900000000200 ) ) ;
#315 = CARTESIAN_POINT ( 'NONE',  ( -0.1970000000000000400, -0.8029999999999998300, -0.1118503950000000100 ) ) ;
#316 = DIRECTION ( 'NONE',  ( 0.0000000000000000000, 0.0000000000000000000, 1.000000000000000000 ) ) ;
#317 = DIRECTION ( 'NONE',  ( -1.000000000000000000, 0.0000000000000000000, 0.0000000000000000000 ) ) ;
#318 = VERTEX_POINT ( 'NONE', #287 ) ;
#319 = DIRECTION ( 'NONE',  ( 0.0000000000000000000, 0.0000000000000000000, 1.000000000000000000 ) ) ;
#320 = CARTESIAN_POINT ( 'NONE',  ( -0.1970000000000000400, 0.0000000000000000000, -0.1118503950000000100 ) ) ;
#321 = DIRECTION ( 'NONE',  ( 0.0000000000000000000, 0.0000000000000000000, 1.000000000000000000 ) ) ;
#322 = DIRECTION ( 'NONE',  ( -1.000000000000000000, 0.0000000000000000000, -0.0000000000000000000 ) ) ;
#323 = DIRECTION ( 'NONE',  ( 0.0000000000000000000, 0.0000000000000000000, -1.000000000000000000 ) ) ;
#324 = DIRECTION ( 'NONE',  ( -0.0000000000000000000, 1.000000000000000000, -0.0000000000000000000 ) ) ;
#325 = VERTEX_POINT ( 'NONE', #286 ) ;
#326 = PLANE ( 'NONE',  #10 ) ;
#327 = VERTEX_POINT ( 'NONE', #285 ) ;
#328 = CARTESIAN_POINT ( 'NONE',  ( -0.02700000000000015200, 0.1797612913513528300, -0.1118503949999999800 ) ) ;
#329 = CARTESIAN_POINT ( 'NONE',  ( 0.1969999999999999800, 0.0000000000000000000, -0.1968503950000000100 ) ) ;
#330 = CARTESIAN_POINT ( 'NONE',  ( -0.3543307086614173000, 2.073152488754191300E-020, -0.3937007900000000200 ) ) ;
#331 = CARTESIAN_POINT ( 'NONE',  ( 0.1969999999999999800, 0.1797612913513528300, -0.1118503950000000500 ) ) ;
#332 = DIRECTION ( 'NONE',  ( 1.224606353822377500E-016, -1.000000000000000000, 0.0000000000000000000 ) ) ;
#333 = CARTESIAN_POINT ( 'NONE',  ( -0.02700000000000015200, 0.1901589367769340500, -0.2818503949999999800 ) ) ;
#334 = VERTEX_POINT ( 'NONE', #284 ) ;
#335 = CARTESIAN_POINT ( 'NONE',  ( 0.1969999999999999800, 0.0000000000000000000, -0.1968503950000000100 ) ) ;
#336 = CARTESIAN_POINT ( 'NONE',  ( -0.1970000000000000400, -0.8029999999999998300, -0.2818503949999999800 ) ) ;
#337 = CARTESIAN_POINT ( 'NONE',  ( 0.1969999999999999800, -0.8029999999999998300, -0.1968503950000000100 ) ) ;
#338 = CARTESIAN_POINT ( 'NONE',  ( -0.1970000000000000400, 0.1901589367769340700, -0.2818503949999999800 ) ) ;
#339 = CARTESIAN_POINT ( 'NONE',  ( -0.3543307086614173000, -4.339156371811573000E-017, -0.3937007900000000200 ) ) ;
#340 = CARTESIAN_POINT ( 'NONE',  ( -0.1970000000000000400, 0.1797612913513528300, -0.1118503950000000100 ) ) ;
#341 = DIRECTION ( 'NONE',  ( 0.0000000000000000000, 0.06104853953485019800, -0.9981347984218674800 ) ) ;
#342 = DIRECTION ( 'NONE',  ( -0.0000000000000000000, 1.000000000000000000, -0.0000000000000000000 ) ) ;
#343 = DIRECTION ( 'NONE',  ( 0.0000000000000000000, -0.9981347984218674800, -0.06104853953485019800 ) ) ;
#344 = CARTESIAN_POINT ( 'NONE',  ( -0.6656692913385826600, 0.1970000000000000100, -0.3937007900000000200 ) ) ;
#345 = CARTESIAN_POINT ( 'NONE',  ( -0.3543307086614173000, -4.339156371811573000E-017, 0.0000000000000000000 ) ) ;
#346 = PLANE ( 'NONE',  #13 ) ;
#347 = DIRECTION ( 'NONE',  ( -1.000000000000000000, 0.0000000000000000000, -0.0000000000000000000 ) ) ;
#348 = DIRECTION ( 'NONE',  ( 0.0000000000000000000, 0.0000000000000000000, -1.000000000000000000 ) ) ;
#349 = CARTESIAN_POINT ( 'NONE',  ( 0.3669999999999998800, 0.1901589367769340500, -0.2818503950000000900 ) ) ;
#350 = PLANE ( 'NONE',  #9 ) ;
#351 = CARTESIAN_POINT ( 'NONE',  ( -0.1970000000000000400, 0.1797612913513528300, -0.1118503950000000100 ) ) ;
#352 = PLANE ( 'NONE',  #14 ) ;
#353 = CARTESIAN_POINT ( 'NONE',  ( -0.3543307086614173000, 2.073152488754191300E-020, 0.0000000000000000000 ) ) ;
#354 = DIRECTION ( 'NONE',  ( 1.224606353822377500E-016, -1.000000000000000000, 0.0000000000000000000 ) ) ;
#355 = CARTESIAN_POINT ( 'NONE',  ( 0.1969999999999999800, 0.1797612913513528300, -0.1118503950000000500 ) ) ;
#356 = CARTESIAN_POINT ( 'NONE',  ( -0.1970000000000000400, -0.8029999999999998300, -0.1968503949999999800 ) ) ;
#357 = CARTESIAN_POINT ( 'NONE',  ( 0.02700000000000007900, 0.1797612913513528300, -0.1118503950000000600 ) ) ;
#358 = CARTESIAN_POINT ( 'NONE',  ( 0.02700000000000007900, 0.1901589367769340500, -0.2818503950000000900 ) ) ;
#359 = DIRECTION ( 'NONE',  ( -0.0000000000000000000, -1.000000000000000000, -0.0000000000000000000 ) ) ;
ENDSEC;
END-ISO-10303-21;
