ISO-10303-21;
HEADER;
FILE_DESCRIPTION (( 'STEP AP214' ),
    '1' );
FILE_NAME ('D1101070-v1_lowerbladeclamp_lowerside_angled_3.0degree.STEP',
    '2011-06-03T16:29:16',
    ( '' ),
    ( '' ),
    'SwSTEP 2.0',
    'SolidWorks 2010',
    '' );
FILE_SCHEMA (( 'AUTOMOTIVE_DESIGN' ));
ENDSEC;

DATA;
#1 = PRODUCT_DEFINITION_CONTEXT ( 'detailed design', #234, 'design' ) ;
#2 = PRODUCT_DEFINITION_SHAPE ( 'NONE', 'NONE',  #11 ) ;
#3 =( BOUNDED_CURVE ( )  B_SPLINE_CURVE ( 3, ( #232, #218, #223, #299 ),
 .UNSPECIFIED., .F., .T. ) 
 B_SPLINE_CURVE_WITH_KNOTS ( ( 4, 4 ),
 ( 0.0000000000000000000, 3.141592653589793100 ),
 .UNSPECIFIED. ) 
 CURVE ( )  GEOMETRIC_REPRESENTATION_ITEM ( )  RATIONAL_B_SPLINE_CURVE ( ( 1.000000000000000000, 0.3333333333333333700, 0.3333333333333333700, 1.000000000000000000 ) ) 
 REPRESENTATION_ITEM ( '' )  );
#4 =( BOUNDED_CURVE ( )  B_SPLINE_CURVE ( 3, ( #322, #208, #330, #328 ),
 .UNSPECIFIED., .F., .T. ) 
 B_SPLINE_CURVE_WITH_KNOTS ( ( 4, 4 ),
 ( 3.141592653589793100, 6.283185307179586200 ),
 .UNSPECIFIED. ) 
 CURVE ( )  GEOMETRIC_REPRESENTATION_ITEM ( )  RATIONAL_B_SPLINE_CURVE ( ( 1.000000000000000000, 0.3333333333333333700, 0.3333333333333333700, 1.000000000000000000 ) ) 
 REPRESENTATION_ITEM ( '' )  );
#5 =( BOUNDED_CURVE ( )  B_SPLINE_CURVE ( 3, ( #306, #340, #288, #292 ),
 .UNSPECIFIED., .F., .F. ) 
 B_SPLINE_CURVE_WITH_KNOTS ( ( 4, 4 ),
 ( 3.141592653589793100, 6.283185307179586200 ),
 .UNSPECIFIED. ) 
 CURVE ( )  GEOMETRIC_REPRESENTATION_ITEM ( )  RATIONAL_B_SPLINE_CURVE ( ( 1.000000000000000000, 0.3333333333333333700, 0.3333333333333333700, 1.000000000000000000 ) ) 
 REPRESENTATION_ITEM ( '' )  );
#6 =( BOUNDED_CURVE ( )  B_SPLINE_CURVE ( 3, ( #345, #312, #305, #314 ),
 .UNSPECIFIED., .F., .T. ) 
 B_SPLINE_CURVE_WITH_KNOTS ( ( 4, 4 ),
 ( 0.0000000000000000000, 3.141592653589793100 ),
 .UNSPECIFIED. ) 
 CURVE ( )  GEOMETRIC_REPRESENTATION_ITEM ( )  RATIONAL_B_SPLINE_CURVE ( ( 1.000000000000000000, 0.3333333333333333700, 0.3333333333333333700, 1.000000000000000000 ) ) 
 REPRESENTATION_ITEM ( '' )  );
#7 = STYLED_ITEM ( 'NONE', ( #63 ), #187 ) ;
#8 = EDGE_CURVE ( 'NONE', #293, #336, #4, .T. ) ;
#9 = PRESENTATION_LAYER_ASSIGNMENT (  '', '', ( #7 ) ) ;
#10 = AXIS2_PLACEMENT_3D ( 'NONE', #334, #289, #355 ) ;
#11 = PRODUCT_DEFINITION ( 'UNKNOWN', '', #23, #1 ) ;
#12 = AXIS2_PLACEMENT_3D ( 'NONE', #224, #283, #275 ) ;
#13 = EDGE_CURVE ( 'NONE', #344, #347, #144, .T. ) ;
#14 = EDGE_CURVE ( 'NONE', #213, #339, #6, .T. ) ;
#15 = EDGE_CURVE ( 'NONE', #338, #304, #140, .T. ) ;
#16 = AXIS2_PLACEMENT_3D ( 'NONE', #271, #273, #210 ) ;
#17 = EDGE_CURVE ( 'NONE', #359, #336, #104, .T. ) ;
#18 = EDGE_CURVE ( 'NONE', #316, #344, #141, .T. ) ;
#19 = AXIS2_PLACEMENT_3D ( 'NONE', #324, #254, #229 ) ;
#20 = EDGE_CURVE ( 'NONE', #339, #213, #5, .T. ) ;
#21 = EDGE_CURVE ( 'NONE', #304, #338, #129, .T. ) ;
#22 = EDGE_CURVE ( 'NONE', #217, #326, #142, .T. ) ;
#23 = PRODUCT_DEFINITION_FORMATION_WITH_SPECIFIED_SOURCE ( 'ANY', '', #185, .NOT_KNOWN. ) ;
#24 = AXIS2_PLACEMENT_3D ( 'NONE', #313, #315, #257 ) ;
#25 = EDGE_CURVE ( 'NONE', #304, #213, #125, .T. ) ;
#26 = AXIS2_PLACEMENT_3D ( 'NONE', #246, #228, #222 ) ;
#27 = EDGE_CURVE ( 'NONE', #336, #293, #3, .T. ) ;
#28 = AXIS2_PLACEMENT_3D ( 'NONE', #282, #296, #261 ) ;
#29 = EDGE_CURVE ( 'NONE', #349, #347, #126, .T. ) ;
#30 = MECHANICAL_DESIGN_GEOMETRIC_PRESENTATION_REPRESENTATION (  '', ( #33 ), #87 ) ;
#31 = EDGE_CURVE ( 'NONE', #217, #329, #124, .T. ) ;
#32 = AXIS2_PLACEMENT_3D ( 'NONE', #214, #291, #221 ) ;
#33 = STYLED_ITEM ( 'NONE', ( #90 ), #189 ) ;
#34 = PRODUCT_RELATED_PRODUCT_CATEGORY ( 'part', '', ( #185 ) ) ;
#35 = EDGE_CURVE ( 'NONE', #326, #349, #118, .T. ) ;
#36 = AXIS2_PLACEMENT_3D ( 'NONE', #220, #279, #259 ) ;
#37 = EDGE_CURVE ( 'NONE', #349, #316, #122, .T. ) ;
#38 = PRESENTATION_LAYER_ASSIGNMENT (  '', '', ( #33 ) ) ;
#39 = EDGE_CURVE ( 'NONE', #321, #316, #113, .T. ) ;
#40 = AXIS2_PLACEMENT_3D ( 'NONE', #266, #343, #230 ) ;
#41 = EDGE_CURVE ( 'NONE', #347, #217, #111, .T. ) ;
#42 = AXIS2_PLACEMENT_3D ( 'NONE', #341, #265, #335 ) ;
#43 = EDGE_CURVE ( 'NONE', #358, #293, #109, .T. ) ;
#44 = EDGE_CURVE ( 'NONE', #358, #359, #102, .T. ) ;
#45 = AXIS2_PLACEMENT_3D ( 'NONE', #237, #332, #302 ) ;
#46 = EDGE_CURVE ( 'NONE', #329, #344, #119, .T. ) ;
#47 = EDGE_CURVE ( 'NONE', #359, #358, #98, .T. ) ;
#48 = AXIS2_PLACEMENT_3D ( 'NONE', #352, #285, #331 ) ;
#49 = AXIS2_PLACEMENT_3D ( 'NONE', #243, #239, #277 ) ;
#50 = EDGE_CURVE ( 'NONE', #326, #321, #115, .T. ) ;
#51 = EDGE_CURVE ( 'NONE', #338, #339, #97, .T. ) ;
#52 = MECHANICAL_DESIGN_GEOMETRIC_PRESENTATION_REPRESENTATION (  '', ( #7 ), #61 ) ;
#53 = AXIS2_PLACEMENT_3D ( 'NONE', #212, #272, #227 ) ;
#54 = EDGE_CURVE ( 'NONE', #329, #321, #95, .T. ) ;
#55 = ORIENTED_EDGE ( 'NONE', *, *, #27, .T. ) ;
#56 = ORIENTED_EDGE ( 'NONE', *, *, #47, .F. ) ;
#57 = ORIENTED_EDGE ( 'NONE', *, *, #31, .F. ) ;
#58 = ORIENTED_EDGE ( 'NONE', *, *, #22, .F. ) ;
#59 = ORIENTED_EDGE ( 'NONE', *, *, #46, .F. ) ;
#60 = SHAPE_DEFINITION_REPRESENTATION ( #2, #187 ) ;
#61 =( GEOMETRIC_REPRESENTATION_CONTEXT ( 3 ) GLOBAL_UNCERTAINTY_ASSIGNED_CONTEXT ( ( #190 ) ) GLOBAL_UNIT_ASSIGNED_CONTEXT ( ( #235, #242, #323 ) ) REPRESENTATION_CONTEXT ( 'NONE', 'WORKASPACE' ) );
#62 = LENGTH_MEASURE_WITH_UNIT ( LENGTH_MEASURE( 0.02539999999999999900 ), #298 );
#63 = PRESENTATION_STYLE_ASSIGNMENT (( #238 ) ) ;
#64 = SURFACE_STYLE_FILL_AREA ( #264 ) ;
#65 = ORIENTED_EDGE ( 'NONE', *, *, #54, .F. ) ;
#66 = COLOUR_RGB ( '',1.000000000000000000, 0.0000000000000000000, 0.0000000000000000000 ) ;
#67 =( GEOMETRIC_REPRESENTATION_CONTEXT ( 3 ) GLOBAL_UNCERTAINTY_ASSIGNED_CONTEXT ( ( #186 ) ) GLOBAL_UNIT_ASSIGNED_CONTEXT ( ( #311, #205, #233 ) ) REPRESENTATION_CONTEXT ( 'NONE', 'WORKASPACE' ) );
#68 = ORIENTED_EDGE ( 'NONE', *, *, #29, .F. ) ;
#69 = ORIENTED_EDGE ( 'NONE', *, *, #41, .F. ) ;
#70 = LENGTH_MEASURE_WITH_UNIT ( LENGTH_MEASURE( 0.02539999999999999900 ), #270 );
#71 = FACE_OUTER_BOUND ( 'NONE', #155, .T. ) ;
#72 = FACE_BOUND ( 'NONE', #160, .T. ) ;
#73 = ORIENTED_EDGE ( 'NONE', *, *, #37, .F. ) ;
#74 = FACE_OUTER_BOUND ( 'NONE', #157, .T. ) ;
#75 = CYLINDRICAL_SURFACE ( 'NONE', #32, 0.08499999999999997800 ) ;
#76 = FACE_OUTER_BOUND ( 'NONE', #151, .T. ) ;
#77 = FACE_BOUND ( 'NONE', #154, .T. ) ;
#78 = CYLINDRICAL_SURFACE ( 'NONE', #40, 0.08499999999999997800 ) ;
#79 = FACE_OUTER_BOUND ( 'NONE', #156, .T. ) ;
#80 = FACE_OUTER_BOUND ( 'NONE', #159, .T. ) ;
#81 = CYLINDRICAL_SURFACE ( 'NONE', #26, 0.08499999999999997800 ) ;
#82 = FACE_BOUND ( 'NONE', #148, .T. ) ;
#83 = FACE_OUTER_BOUND ( 'NONE', #149, .T. ) ;
#84 = FACE_OUTER_BOUND ( 'NONE', #147, .T. ) ;
#85 = FACE_OUTER_BOUND ( 'NONE', #152, .T. ) ;
#86 = ORIENTED_EDGE ( 'NONE', *, *, #54, .T. ) ;
#87 =( GEOMETRIC_REPRESENTATION_CONTEXT ( 3 ) GLOBAL_UNCERTAINTY_ASSIGNED_CONTEXT ( ( #188 ) ) GLOBAL_UNIT_ASSIGNED_CONTEXT ( ( #255, #245, #267 ) ) REPRESENTATION_CONTEXT ( 'NONE', 'WORKASPACE' ) );
#88 = CLOSED_SHELL ( 'NONE', ( #198, #195, #196, #194, #199, #203, #201, #200, #197, #202 ) ) ;
#89 = LENGTH_MEASURE_WITH_UNIT ( LENGTH_MEASURE( 0.02539999999999999900 ), #226 );
#90 = PRESENTATION_STYLE_ASSIGNMENT (( #354 ) ) ;
#91 = SURFACE_STYLE_FILL_AREA ( #284 ) ;
#92 = FACE_BOUND ( 'NONE', #162, .T. ) ;
#93 = COLOUR_RGB ( '',1.000000000000000000, 0.0000000000000000000, 0.0000000000000000000 ) ;
#94 = VECTOR ( 'NONE', #319, 39.37007874015748100 ) ;
#95 = LINE ( 'NONE', #206, #94 ) ;
#96 = VECTOR ( 'NONE', #281, 39.37007874015748100 ) ;
#97 = LINE ( 'NONE', #216, #96 ) ;
#98 = CIRCLE ( 'NONE', #10, 0.08499999999999997800 ) ;
#99 = FACE_OUTER_BOUND ( 'NONE', #158, .T. ) ;
#100 = ORIENTED_EDGE ( 'NONE', *, *, #17, .T. ) ;
#101 = FACE_OUTER_BOUND ( 'NONE', #153, .T. ) ;
#102 = CIRCLE ( 'NONE', #19, 0.08499999999999997800 ) ;
#103 = VECTOR ( 'NONE', #287, 39.37007874015748100 ) ;
#104 = LINE ( 'NONE', #357, #143 ) ;
#105 = CYLINDRICAL_SURFACE ( 'NONE', #36, 0.08499999999999997800 ) ;
#106 = ORIENTED_EDGE ( 'NONE', *, *, #43, .F. ) ;
#107 = VECTOR ( 'NONE', #294, 39.37007874015748100 ) ;
#108 = ORIENTED_EDGE ( 'NONE', *, *, #18, .F. ) ;
#109 = LINE ( 'NONE', #211, #107 ) ;
#110 = VECTOR ( 'NONE', #303, 39.37007874015748100 ) ;
#111 = LINE ( 'NONE', #308, #110 ) ;
#112 = VECTOR ( 'NONE', #309, 39.37007874015748100 ) ;
#113 = LINE ( 'NONE', #317, #112 ) ;
#114 = ORIENTED_EDGE ( 'NONE', *, *, #50, .T. ) ;
#115 = LINE ( 'NONE', #251, #103 ) ;
#116 = VECTOR ( 'NONE', #274, 39.37007874015748100 ) ;
#117 = VECTOR ( 'NONE', #236, 39.37007874015748100 ) ;
#118 = LINE ( 'NONE', #320, #117 ) ;
#119 = LINE ( 'NONE', #327, #123 ) ;
#120 = VECTOR ( 'NONE', #346, 39.37007874015748900 ) ;
#121 = VECTOR ( 'NONE', #252, 39.37007874015748100 ) ;
#122 = LINE ( 'NONE', #295, #116 ) ;
#123 = VECTOR ( 'NONE', #353, 39.37007874015748100 ) ;
#124 = LINE ( 'NONE', #241, #120 ) ;
#125 = LINE ( 'NONE', #225, #127 ) ;
#126 = LINE ( 'NONE', #300, #121 ) ;
#127 = VECTOR ( 'NONE', #351, 39.37007874015748100 ) ;
#128 = ORIENTED_EDGE ( 'NONE', *, *, #35, .T. ) ;
#129 = CIRCLE ( 'NONE', #42, 0.08499999999999997800 ) ;
#130 = ORIENTED_EDGE ( 'NONE', *, *, #44, .T. ) ;
#131 = ORIENTED_EDGE ( 'NONE', *, *, #25, .T. ) ;
#132 = ORIENTED_EDGE ( 'NONE', *, *, #14, .T. ) ;
#133 = ORIENTED_EDGE ( 'NONE', *, *, #50, .F. ) ;
#134 = VECTOR ( 'NONE', #250, 39.37007874015748100 ) ;
#135 = ORIENTED_EDGE ( 'NONE', *, *, #18, .T. ) ;
#136 = ORIENTED_EDGE ( 'NONE', *, *, #22, .T. ) ;
#137 = VECTOR ( 'NONE', #348, 39.37007874015748100 ) ;
#138 = ORIENTED_EDGE ( 'NONE', *, *, #15, .T. ) ;
#139 = ORIENTED_EDGE ( 'NONE', *, *, #51, .F. ) ;
#140 = CIRCLE ( 'NONE', #48, 0.08499999999999997800 ) ;
#141 = LINE ( 'NONE', #342, #137 ) ;
#142 = LINE ( 'NONE', #307, #134 ) ;
#143 = VECTOR ( 'NONE', #280, 39.37007874015748100 ) ;
#144 = LINE ( 'NONE', #301, #146 ) ;
#145 = ORIENTED_EDGE ( 'NONE', *, *, #29, .T. ) ;
#146 = VECTOR ( 'NONE', #350, 39.37007874015748100 ) ;
#147 = EDGE_LOOP ( 'NONE', ( #130, #100, #55, #106 ) ) ;
#148 = EDGE_LOOP ( 'NONE', ( #163, #56 ) ) ;
#149 = EDGE_LOOP ( 'NONE', ( #171, #169, #184, #168 ) ) ;
#150 = ORIENTED_EDGE ( 'NONE', *, *, #39, .F. ) ;
#151 = EDGE_LOOP ( 'NONE', ( #135, #59, #86, #183 ) ) ;
#152 = EDGE_LOOP ( 'NONE', ( #176, #108, #73, #145 ) ) ;
#153 = EDGE_LOOP ( 'NONE', ( #138, #131, #132, #139 ) ) ;
#154 = EDGE_LOOP ( 'NONE', ( #173, #179 ) ) ;
#155 = EDGE_LOOP ( 'NONE', ( #161, #58, #69, #68 ) ) ;
#156 = EDGE_LOOP ( 'NONE', ( #174, #167, #164, #177 ) ) ;
#157 = EDGE_LOOP ( 'NONE', ( #178, #181, #182, #170 ) ) ;
#158 = EDGE_LOOP ( 'NONE', ( #57, #136, #114, #65 ) ) ;
#159 = EDGE_LOOP ( 'NONE', ( #150, #133, #128, #175 ) ) ;
#160 = EDGE_LOOP ( 'NONE', ( #180, #172 ) ) ;
#161 = ORIENTED_EDGE ( 'NONE', *, *, #35, .F. ) ;
#162 = EDGE_LOOP ( 'NONE', ( #166, #165 ) ) ;
#163 = ORIENTED_EDGE ( 'NONE', *, *, #44, .F. ) ;
#164 = ORIENTED_EDGE ( 'NONE', *, *, #51, .T. ) ;
#165 = ORIENTED_EDGE ( 'NONE', *, *, #21, .F. ) ;
#166 = ORIENTED_EDGE ( 'NONE', *, *, #15, .F. ) ;
#167 = ORIENTED_EDGE ( 'NONE', *, *, #21, .T. ) ;
#168 = ORIENTED_EDGE ( 'NONE', *, *, #8, .T. ) ;
#169 = ORIENTED_EDGE ( 'NONE', *, *, #47, .T. ) ;
#170 = ORIENTED_EDGE ( 'NONE', *, *, #41, .T. ) ;
#171 = ORIENTED_EDGE ( 'NONE', *, *, #17, .F. ) ;
#172 = ORIENTED_EDGE ( 'NONE', *, *, #27, .F. ) ;
#173 = ORIENTED_EDGE ( 'NONE', *, *, #20, .F. ) ;
#174 = ORIENTED_EDGE ( 'NONE', *, *, #25, .F. ) ;
#175 = ORIENTED_EDGE ( 'NONE', *, *, #37, .T. ) ;
#176 = ORIENTED_EDGE ( 'NONE', *, *, #13, .F. ) ;
#177 = ORIENTED_EDGE ( 'NONE', *, *, #20, .T. ) ;
#178 = ORIENTED_EDGE ( 'NONE', *, *, #31, .T. ) ;
#179 = ORIENTED_EDGE ( 'NONE', *, *, #14, .F. ) ;
#180 = ORIENTED_EDGE ( 'NONE', *, *, #8, .F. ) ;
#181 = ORIENTED_EDGE ( 'NONE', *, *, #46, .T. ) ;
#182 = ORIENTED_EDGE ( 'NONE', *, *, #13, .T. ) ;
#183 = ORIENTED_EDGE ( 'NONE', *, *, #39, .T. ) ;
#184 = ORIENTED_EDGE ( 'NONE', *, *, #43, .T. ) ;
#185 = PRODUCT ( 'D1101070-v1_lowerbladeclamp_lowerside_angled_3.0degree', 'D1101070-v1_lowerbladeclamp_lowerside_angled_3.0degree', '', ( #269 ) ) ;
#186 = UNCERTAINTY_MEASURE_WITH_UNIT (LENGTH_MEASURE( 1.000000000000000100E-005 ), #311, 'distance_accuracy_value', 'NONE');
#187 = ADVANCED_BREP_SHAPE_REPRESENTATION ( 'D1101070-v1_lowerbladeclamp_lowerside_angled_3.0degree', ( #189, #45 ), #67 ) ;
#188 = UNCERTAINTY_MEASURE_WITH_UNIT (LENGTH_MEASURE( 1.000000000000000100E-005 ), #255, 'distance_accuracy_value', 'NONE');
#189 = MANIFOLD_SOLID_BREP ( 'Cut-Extrude3', #88 ) ;
#190 = UNCERTAINTY_MEASURE_WITH_UNIT (LENGTH_MEASURE( 1.000000000000000100E-005 ), #235, 'distance_accuracy_value', 'NONE');
#191 = DIMENSIONAL_EXPONENTS ( 1.000000000000000000, 0.0000000000000000000, 0.0000000000000000000, 0.0000000000000000000, 0.0000000000000000000, 0.0000000000000000000, 0.0000000000000000000 ) ;
#192 = DIMENSIONAL_EXPONENTS ( 1.000000000000000000, 0.0000000000000000000, 0.0000000000000000000, 0.0000000000000000000, 0.0000000000000000000, 0.0000000000000000000, 0.0000000000000000000 ) ;
#193 = DIMENSIONAL_EXPONENTS ( 1.000000000000000000, 0.0000000000000000000, 0.0000000000000000000, 0.0000000000000000000, 0.0000000000000000000, 0.0000000000000000000, 0.0000000000000000000 ) ;
#194 = ADVANCED_FACE ( 'NONE', ( #99 ), #337, .T. ) ;
#195 = ADVANCED_FACE ( 'NONE', ( #84 ), #105, .F. ) ;
#196 = ADVANCED_FACE ( 'NONE', ( #92, #82, #80 ), #268, .T. ) ;
#197 = ADVANCED_FACE ( 'NONE', ( #79 ), #78, .F. ) ;
#198 = ADVANCED_FACE ( 'NONE', ( #101 ), #81, .F. ) ;
#199 = ADVANCED_FACE ( 'NONE', ( #85 ), #204, .T. ) ;
#200 = ADVANCED_FACE ( 'NONE', ( #83 ), #75, .F. ) ;
#201 = ADVANCED_FACE ( 'NONE', ( #76 ), #286, .F. ) ;
#202 = ADVANCED_FACE ( 'NONE', ( #74, #77, #72 ), #219, .F. ) ;
#203 = ADVANCED_FACE ( 'NONE', ( #71 ), #244, .T. ) ;
#204 = PLANE ( 'NONE',  #49 ) ;
#205 =( NAMED_UNIT ( * ) PLANE_ANGLE_UNIT ( ) SI_UNIT ( $, .RADIAN. ) );
#206 = CARTESIAN_POINT ( 'NONE',  ( -0.3543307086614173000, -4.339156371811573000E-017, 0.0000000000000000000 ) ) ;
#207 = CARTESIAN_POINT ( 'NONE',  ( -0.3543307086614173000, 0.1970000000000000100, -0.3937007900000000200 ) ) ;
#208 = CARTESIAN_POINT ( 'NONE',  ( -0.02700000000000015200, 0.1822288467080039600, -0.1118503949999999800 ) ) ;
#209 = CARTESIAN_POINT ( 'NONE',  ( 0.3543307086614173000, 0.1970000000000000100, -0.3937007900000000200 ) ) ;
#210 = DIRECTION ( 'NONE',  ( -1.000000000000000000, 0.0000000000000000000, -0.0000000000000000000 ) ) ;
#211 = CARTESIAN_POINT ( 'NONE',  ( -0.1970000000000000400, -0.8029999999999998300, -0.1118503950000000100 ) ) ;
#212 = CARTESIAN_POINT ( 'NONE',  ( -0.6656692913385826600, 0.1970000000000000100, -0.3937007900000000200 ) ) ;
#213 = VERTEX_POINT ( 'NONE', #249 ) ;
#214 = CARTESIAN_POINT ( 'NONE',  ( -0.1970000000000000400, -0.8029999999999998300, -0.1968503949999999800 ) ) ;
#215 = SURFACE_SIDE_STYLE ('',( #91 ) ) ;
#216 = CARTESIAN_POINT ( 'NONE',  ( 0.1969999999999999800, -0.8029999999999998300, -0.1118503950000000500 ) ) ;
#217 = VERTEX_POINT ( 'NONE', #207 ) ;
#218 = CARTESIAN_POINT ( 'NONE',  ( -0.3669999999999999400, 0.1911381691861198100, -0.2818503949999999800 ) ) ;
#219 = PLANE ( 'NONE',  #53 ) ;
#220 = CARTESIAN_POINT ( 'NONE',  ( -0.1970000000000000400, -0.8029999999999998300, -0.1968503949999999800 ) ) ;
#221 = DIRECTION ( 'NONE',  ( 0.0000000000000000000, 0.0000000000000000000, 1.000000000000000000 ) ) ;
#222 = DIRECTION ( 'NONE',  ( 0.0000000000000000000, 0.0000000000000000000, 1.000000000000000000 ) ) ;
#223 = CARTESIAN_POINT ( 'NONE',  ( -0.3669999999999999400, 0.1822288467080039600, -0.1118503950000000200 ) ) ;
#224 = CARTESIAN_POINT ( 'NONE',  ( -0.3543307086614173000, 2.073152488754191300E-020, -0.3937007900000000200 ) ) ;
#225 = CARTESIAN_POINT ( 'NONE',  ( 0.1969999999999999800, -0.8029999999999998300, -0.2818503949999999800 ) ) ;
#226 =( LENGTH_UNIT ( ) NAMED_UNIT ( * ) SI_UNIT ( $, .METRE. ) );
#227 = DIRECTION ( 'NONE',  ( 0.0000000000000000000, 0.05233595624293711100, -0.9986295347545742800 ) ) ;
#228 = DIRECTION ( 'NONE',  ( -0.0000000000000000000, 1.000000000000000000, -0.0000000000000000000 ) ) ;
#229 = DIRECTION ( 'NONE',  ( 1.000000000000000000, 1.224606353822377500E-016, 0.0000000000000000000 ) ) ;
#230 = DIRECTION ( 'NONE',  ( 0.0000000000000000000, 0.0000000000000000000, 1.000000000000000000 ) ) ;
#231 = CARTESIAN_POINT ( 'NONE',  ( 0.3543307086614173000, -2.073152488754191300E-020, -0.3937007900000000200 ) ) ;
#232 = CARTESIAN_POINT ( 'NONE',  ( -0.1970000000000000400, 0.1911381691861197300, -0.2818503949999999800 ) ) ;
#233 =( NAMED_UNIT ( * ) SI_UNIT ( $, .STERADIAN. ) SOLID_ANGLE_UNIT ( ) );
#234 = APPLICATION_CONTEXT ( 'automotive_design' ) ;
#235 =( CONVERSION_BASED_UNIT ( 'INCH', #62 ) LENGTH_UNIT ( ) NAMED_UNIT ( #191 ) );
#236 = DIRECTION ( 'NONE',  ( 1.000000000000000000, -5.850897023817385100E-020, -0.0000000000000000000 ) ) ;
#237 = CARTESIAN_POINT ( 'NONE',  ( 0.0000000000000000000, 0.0000000000000000000, 0.0000000000000000000 ) ) ;
#238 = SURFACE_STYLE_USAGE ( .BOTH. , #333 ) ;
#239 = DIRECTION ( 'NONE',  ( 1.000000000000000000, 0.0000000000000000000, -0.0000000000000000000 ) ) ;
#240 = CARTESIAN_POINT ( 'NONE',  ( -0.1970000000000000400, 0.0000000000000000000, -0.2818503949999999800 ) ) ;
#241 = CARTESIAN_POINT ( 'NONE',  ( -0.3543307086614173000, 0.1964604066937751000, -0.3834047363681374900 ) ) ;
#242 =( NAMED_UNIT ( * ) PLANE_ANGLE_UNIT ( ) SI_UNIT ( $, .RADIAN. ) );
#243 = CARTESIAN_POINT ( 'NONE',  ( 0.3543307086614173000, 0.1970000000000000100, -0.3937007900000000200 ) ) ;
#244 = PLANE ( 'NONE',  #12 ) ;
#245 =( NAMED_UNIT ( * ) PLANE_ANGLE_UNIT ( ) SI_UNIT ( $, .RADIAN. ) );
#246 = CARTESIAN_POINT ( 'NONE',  ( 0.1969999999999999800, -0.8029999999999998300, -0.1968503950000000100 ) ) ;
#247 = CARTESIAN_POINT ( 'NONE',  ( 0.1969999999999999800, 0.0000000000000000000, -0.1118503950000000500 ) ) ;
#248 = APPLICATION_PROTOCOL_DEFINITION ( 'draft international standard', 'automotive_design', 1998, #234 ) ;
#249 = CARTESIAN_POINT ( 'NONE',  ( 0.1969999999999999800, 0.1911381691861197300, -0.2818503949999999800 ) ) ;
#250 = DIRECTION ( 'NONE',  ( -0.0000000000000000000, -1.000000000000000000, -0.0000000000000000000 ) ) ;
#251 = CARTESIAN_POINT ( 'NONE',  ( -0.3543307086614173000, -4.339156371811573000E-017, -0.3937007900000000200 ) ) ;
#252 = DIRECTION ( 'NONE',  ( -0.0000000000000000000, 1.000000000000000000, -0.0000000000000000000 ) ) ;
#253 = APPLICATION_PROTOCOL_DEFINITION ( 'draft international standard', 'automotive_design', 1998, #290 ) ;
#254 = DIRECTION ( 'NONE',  ( 1.224606353822377500E-016, -1.000000000000000000, 0.0000000000000000000 ) ) ;
#255 =( CONVERSION_BASED_UNIT ( 'INCH', #89 ) LENGTH_UNIT ( ) NAMED_UNIT ( #193 ) );
#256 = CARTESIAN_POINT ( 'NONE',  ( 0.3543307086614173000, -2.073152488754191300E-020, 0.0000000000000000000 ) ) ;
#257 = DIRECTION ( 'NONE',  ( 1.000000000000000000, 1.224606353822377500E-016, 0.0000000000000000000 ) ) ;
#258 = CARTESIAN_POINT ( 'NONE',  ( -0.1970000000000000400, 0.1911381691861197300, -0.2818503949999999800 ) ) ;
#259 = DIRECTION ( 'NONE',  ( 0.0000000000000000000, 0.0000000000000000000, 1.000000000000000000 ) ) ;
#260 = CARTESIAN_POINT ( 'NONE',  ( -0.1970000000000000400, 0.1822288467080039300, -0.1118503950000000100 ) ) ;
#261 = DIRECTION ( 'NONE',  ( 0.0000000000000000000, 0.0000000000000000000, 1.000000000000000000 ) ) ;
#262 = CARTESIAN_POINT ( 'NONE',  ( -0.3543307086614173000, -4.339156371811573000E-017, -0.3937007900000000200 ) ) ;
#263 = CARTESIAN_POINT ( 'NONE',  ( 0.3543307086614173000, 0.1763670158941237100, 0.0000000000000000000 ) ) ;
#264 = FILL_AREA_STYLE ('',( #278 ) ) ;
#265 = DIRECTION ( 'NONE',  ( 1.224606353822377500E-016, -1.000000000000000000, 0.0000000000000000000 ) ) ;
#266 = CARTESIAN_POINT ( 'NONE',  ( 0.1969999999999999800, -0.8029999999999998300, -0.1968503950000000100 ) ) ;
#267 =( NAMED_UNIT ( * ) SI_UNIT ( $, .STERADIAN. ) SOLID_ANGLE_UNIT ( ) );
#268 = PLANE ( 'NONE',  #24 ) ;
#269 = PRODUCT_CONTEXT ( 'NONE', #290, 'mechanical' ) ;
#270 =( LENGTH_UNIT ( ) NAMED_UNIT ( * ) SI_UNIT ( $, .METRE. ) );
#271 = CARTESIAN_POINT ( 'NONE',  ( -0.3543307086614173000, 2.073152488754191300E-020, 0.0000000000000000000 ) ) ;
#272 = DIRECTION ( 'NONE',  ( 0.0000000000000000000, -0.9986295347545742800, -0.05233595624293711100 ) ) ;
#273 = DIRECTION ( 'NONE',  ( 0.0000000000000000000, 0.0000000000000000000, -1.000000000000000000 ) ) ;
#274 = DIRECTION ( 'NONE',  ( 0.0000000000000000000, 0.0000000000000000000, 1.000000000000000000 ) ) ;
#275 = DIRECTION ( 'NONE',  ( -1.000000000000000000, 0.0000000000000000000, -0.0000000000000000000 ) ) ;
#276 = CARTESIAN_POINT ( 'NONE',  ( -0.1970000000000000400, 0.0000000000000000000, -0.1118503950000000100 ) ) ;
#277 = DIRECTION ( 'NONE',  ( -0.0000000000000000000, 0.0000000000000000000, -1.000000000000000000 ) ) ;
#278 = FILL_AREA_STYLE_COLOUR ( '', #66 ) ;
#279 = DIRECTION ( 'NONE',  ( -0.0000000000000000000, 1.000000000000000000, -0.0000000000000000000 ) ) ;
#280 = DIRECTION ( 'NONE',  ( -0.0000000000000000000, 1.000000000000000000, -0.0000000000000000000 ) ) ;
#281 = DIRECTION ( 'NONE',  ( -0.0000000000000000000, 1.000000000000000000, -0.0000000000000000000 ) ) ;
#282 = CARTESIAN_POINT ( 'NONE',  ( -0.3543307086614173000, -4.339156371811573000E-017, -0.3937007900000000200 ) ) ;
#283 = DIRECTION ( 'NONE',  ( 0.0000000000000000000, 0.0000000000000000000, -1.000000000000000000 ) ) ;
#284 = FILL_AREA_STYLE ('',( #310 ) ) ;
#285 = DIRECTION ( 'NONE',  ( 1.224606353822377500E-016, -1.000000000000000000, 0.0000000000000000000 ) ) ;
#286 = PLANE ( 'NONE',  #16 ) ;
#287 = DIRECTION ( 'NONE',  ( 0.0000000000000000000, 0.0000000000000000000, 1.000000000000000000 ) ) ;
#288 = CARTESIAN_POINT ( 'NONE',  ( 0.3669999999999998800, 0.1911381691861198100, -0.2818503950000000900 ) ) ;
#289 = DIRECTION ( 'NONE',  ( 1.224606353822377500E-016, -1.000000000000000000, 0.0000000000000000000 ) ) ;
#290 = APPLICATION_CONTEXT ( 'automotive_design' ) ;
#291 = DIRECTION ( 'NONE',  ( -0.0000000000000000000, 1.000000000000000000, -0.0000000000000000000 ) ) ;
#292 = CARTESIAN_POINT ( 'NONE',  ( 0.1969999999999999800, 0.1911381691861197300, -0.2818503949999999800 ) ) ;
#293 = VERTEX_POINT ( 'NONE', #260 ) ;
#294 = DIRECTION ( 'NONE',  ( -0.0000000000000000000, 1.000000000000000000, -0.0000000000000000000 ) ) ;
#295 = CARTESIAN_POINT ( 'NONE',  ( 0.3543307086614173000, -2.073152488754191300E-020, -0.3937007900000000200 ) ) ;
#296 = DIRECTION ( 'NONE',  ( -1.000000000000000000, 0.0000000000000000000, 0.0000000000000000000 ) ) ;
#297 = CARTESIAN_POINT ( 'NONE',  ( 0.1969999999999999800, 0.1822288467080039300, -0.1118503950000000500 ) ) ;
#298 =( LENGTH_UNIT ( ) NAMED_UNIT ( * ) SI_UNIT ( $, .METRE. ) );
#299 = CARTESIAN_POINT ( 'NONE',  ( -0.1970000000000000400, 0.1822288467080039300, -0.1118503950000000100 ) ) ;
#300 = CARTESIAN_POINT ( 'NONE',  ( 0.3543307086614173000, 0.1970000000000000100, -0.3937007900000000200 ) ) ;
#301 = CARTESIAN_POINT ( 'NONE',  ( 0.3543307086614173000, 0.1970000000000000100, -0.3937007900000000200 ) ) ;
#302 = DIRECTION ( 'NONE',  ( 1.000000000000000000, 0.0000000000000000000, 0.0000000000000000000 ) ) ;
#303 = DIRECTION ( 'NONE',  ( -1.000000000000000000, 4.818676322157797600E-017, -0.0000000000000000000 ) ) ;
#304 = VERTEX_POINT ( 'NONE', #318 ) ;
#305 = CARTESIAN_POINT ( 'NONE',  ( 0.02700000000000007900, 0.1822288467080039600, -0.1118503950000000600 ) ) ;
#306 = CARTESIAN_POINT ( 'NONE',  ( 0.1969999999999999800, 0.1822288467080039300, -0.1118503950000000500 ) ) ;
#307 = CARTESIAN_POINT ( 'NONE',  ( -0.3543307086614173000, -4.339156371811573000E-017, -0.3937007900000000200 ) ) ;
#308 = CARTESIAN_POINT ( 'NONE',  ( -0.3543307086614173000, 0.1970000000000000400, -0.3937007900000000200 ) ) ;
#309 = DIRECTION ( 'NONE',  ( 1.000000000000000000, 1.224606353822377300E-016, -0.0000000000000000000 ) ) ;
#310 = FILL_AREA_STYLE_COLOUR ( '', #93 ) ;
#311 =( CONVERSION_BASED_UNIT ( 'INCH', #70 ) LENGTH_UNIT ( ) NAMED_UNIT ( #192 ) );
#312 = CARTESIAN_POINT ( 'NONE',  ( 0.02700000000000007900, 0.1911381691861198100, -0.2818503950000000900 ) ) ;
#313 = CARTESIAN_POINT ( 'NONE',  ( 0.0000000000000000000, 0.0000000000000000000, -0.3937007900000000200 ) ) ;
#314 = CARTESIAN_POINT ( 'NONE',  ( 0.1969999999999999800, 0.1822288467080039300, -0.1118503950000000500 ) ) ;
#315 = DIRECTION ( 'NONE',  ( 1.224606353822377500E-016, -1.000000000000000000, 0.0000000000000000000 ) ) ;
#316 = VERTEX_POINT ( 'NONE', #256 ) ;
#317 = CARTESIAN_POINT ( 'NONE',  ( 0.0000000000000000000, 0.0000000000000000000, 0.0000000000000000000 ) ) ;
#318 = CARTESIAN_POINT ( 'NONE',  ( 0.1969999999999999800, 0.0000000000000000000, -0.2818503949999999800 ) ) ;
#319 = DIRECTION ( 'NONE',  ( -0.0000000000000000000, -1.000000000000000000, -0.0000000000000000000 ) ) ;
#320 = CARTESIAN_POINT ( 'NONE',  ( 0.3543307086614173000, -2.073152488754191300E-020, -0.3937007900000000200 ) ) ;
#321 = VERTEX_POINT ( 'NONE', #325 ) ;
#322 = CARTESIAN_POINT ( 'NONE',  ( -0.1970000000000000400, 0.1822288467080039300, -0.1118503950000000100 ) ) ;
#323 =( NAMED_UNIT ( * ) SI_UNIT ( $, .STERADIAN. ) SOLID_ANGLE_UNIT ( ) );
#324 = CARTESIAN_POINT ( 'NONE',  ( -0.1970000000000000400, 0.0000000000000000000, -0.1968503949999999800 ) ) ;
#325 = CARTESIAN_POINT ( 'NONE',  ( -0.3543307086614173000, -4.339156371811573000E-017, 0.0000000000000000000 ) ) ;
#326 = VERTEX_POINT ( 'NONE', #262 ) ;
#327 = CARTESIAN_POINT ( 'NONE',  ( -0.6656692913385826600, 0.1763670158941237100, 0.0000000000000000000 ) ) ;
#328 = CARTESIAN_POINT ( 'NONE',  ( -0.1970000000000000400, 0.1911381691861197300, -0.2818503949999999800 ) ) ;
#329 = VERTEX_POINT ( 'NONE', #356 ) ;
#330 = CARTESIAN_POINT ( 'NONE',  ( -0.02700000000000015200, 0.1911381691861198100, -0.2818503949999999800 ) ) ;
#331 = DIRECTION ( 'NONE',  ( 1.000000000000000000, 1.224606353822377500E-016, 0.0000000000000000000 ) ) ;
#332 = DIRECTION ( 'NONE',  ( 0.0000000000000000000, 0.0000000000000000000, 1.000000000000000000 ) ) ;
#333 = SURFACE_SIDE_STYLE ('',( #64 ) ) ;
#334 = CARTESIAN_POINT ( 'NONE',  ( -0.1970000000000000400, 0.0000000000000000000, -0.1968503949999999800 ) ) ;
#335 = DIRECTION ( 'NONE',  ( 1.000000000000000000, 1.224606353822377500E-016, 0.0000000000000000000 ) ) ;
#336 = VERTEX_POINT ( 'NONE', #258 ) ;
#337 = PLANE ( 'NONE',  #28 ) ;
#338 = VERTEX_POINT ( 'NONE', #247 ) ;
#339 = VERTEX_POINT ( 'NONE', #297 ) ;
#340 = CARTESIAN_POINT ( 'NONE',  ( 0.3669999999999998800, 0.1822288467080039600, -0.1118503950000000200 ) ) ;
#341 = CARTESIAN_POINT ( 'NONE',  ( 0.1969999999999999800, 0.0000000000000000000, -0.1968503950000000100 ) ) ;
#342 = CARTESIAN_POINT ( 'NONE',  ( 0.3543307086614173000, 0.1970000000000000100, 0.0000000000000000000 ) ) ;
#343 = DIRECTION ( 'NONE',  ( -0.0000000000000000000, 1.000000000000000000, -0.0000000000000000000 ) ) ;
#344 = VERTEX_POINT ( 'NONE', #263 ) ;
#345 = CARTESIAN_POINT ( 'NONE',  ( 0.1969999999999999800, 0.1911381691861197300, -0.2818503949999999800 ) ) ;
#346 = DIRECTION ( 'NONE',  ( 0.0000000000000000000, -0.05233595624293711100, 0.9986295347545742800 ) ) ;
#347 = VERTEX_POINT ( 'NONE', #209 ) ;
#348 = DIRECTION ( 'NONE',  ( -0.0000000000000000000, 1.000000000000000000, -0.0000000000000000000 ) ) ;
#349 = VERTEX_POINT ( 'NONE', #231 ) ;
#350 = DIRECTION ( 'NONE',  ( -0.0000000000000000000, 0.05233595624293710400, -0.9986295347545742800 ) ) ;
#351 = DIRECTION ( 'NONE',  ( -0.0000000000000000000, 1.000000000000000000, -0.0000000000000000000 ) ) ;
#352 = CARTESIAN_POINT ( 'NONE',  ( 0.1969999999999999800, 0.0000000000000000000, -0.1968503950000000100 ) ) ;
#353 = DIRECTION ( 'NONE',  ( 1.000000000000000000, -0.0000000000000000000, -0.0000000000000000000 ) ) ;
#354 = SURFACE_STYLE_USAGE ( .BOTH. , #215 ) ;
#355 = DIRECTION ( 'NONE',  ( 1.000000000000000000, 1.224606353822377500E-016, 0.0000000000000000000 ) ) ;
#356 = CARTESIAN_POINT ( 'NONE',  ( -0.3543307086614173000, 0.1763670158941237100, 0.0000000000000000000 ) ) ;
#357 = CARTESIAN_POINT ( 'NONE',  ( -0.1970000000000000400, -0.8029999999999998300, -0.2818503949999999800 ) ) ;
#358 = VERTEX_POINT ( 'NONE', #276 ) ;
#359 = VERTEX_POINT ( 'NONE', #240 ) ;
ENDSEC;
END-ISO-10303-21;
