ISO-10303-21;
HEADER;
FILE_DESCRIPTION (( 'STEP AP214' ),
    '1' );
FILE_NAME ('D1100863-v1_aLIGO_SUS_HSTS_ADD-ON MASS 5g.STEP',
    '2011-05-10T14:59:23',
    ( '' ),
    ( '' ),
    'SwSTEP 2.0',
    'SolidWorks 2010',
    '' );
FILE_SCHEMA (( 'AUTOMOTIVE_DESIGN' ));
ENDSEC;

DATA;
#1 = EDGE_LOOP ( 'NONE', ( #73, #10 ) ) ;
#2 = SURFACE_STYLE_FILL_AREA ( #169 ) ;
#3 = CLOSED_SHELL ( 'NONE', ( #216, #217, #215, #218, #219, #220 ) ) ;
#4 = EDGE_LOOP ( 'NONE', ( #66, #15, #17, #18 ) ) ;
#5 =( GEOMETRIC_REPRESENTATION_CONTEXT ( 3 ) GLOBAL_UNCERTAINTY_ASSIGNED_CONTEXT ( ( #87 ) ) GLOBAL_UNIT_ASSIGNED_CONTEXT ( ( #154, #170, #143 ) ) REPRESENTATION_CONTEXT ( 'NONE', 'WORKASPACE' ) );
#6 = ORIENTED_EDGE ( 'NONE', *, *, #190, .F. ) ;
#7 = LINE ( 'NONE', #158, #27 ) ;
#8 = ORIENTED_EDGE ( 'NONE', *, *, #195, .T. ) ;
#9 = ORIENTED_EDGE ( 'NONE', *, *, #179, .F. ) ;
#10 = ORIENTED_EDGE ( 'NONE', *, *, #213, .F. ) ;
#11 = ORIENTED_EDGE ( 'NONE', *, *, #204, .F. ) ;
#12 = ORIENTED_EDGE ( 'NONE', *, *, #181, .F. ) ;
#13 = ORIENTED_EDGE ( 'NONE', *, *, #190, .T. ) ;
#14 = ORIENTED_EDGE ( 'NONE', *, *, #210, .T. ) ;
#15 = ORIENTED_EDGE ( 'NONE', *, *, #181, .T. ) ;
#16 = ORIENTED_EDGE ( 'NONE', *, *, #202, .T. ) ;
#17 = ORIENTED_EDGE ( 'NONE', *, *, #179, .T. ) ;
#18 = ORIENTED_EDGE ( 'NONE', *, *, #210, .F. ) ;
#19 = ORIENTED_EDGE ( 'NONE', *, *, #200, .F. ) ;
#20 = ORIENTED_EDGE ( 'NONE', *, *, #184, .F. ) ;
#21 = ORIENTED_EDGE ( 'NONE', *, *, #184, .T. ) ;
#22 = ORIENTED_EDGE ( 'NONE', *, *, #202, .F. ) ;
#23 = SHAPE_DEFINITION_REPRESENTATION ( #89, #84 ) ;
#24 = CYLINDRICAL_SURFACE ( 'NONE', #212, 0.3284999999999999000 ) ;
#25 = PRESENTATION_STYLE_ASSIGNMENT (( #116 ) ) ;
#26 = CIRCLE ( 'NONE', #185, 0.1329999999999995100 ) ;
#27 = VECTOR ( 'NONE', #123, 39.37007874015748100 ) ;
#28 = LENGTH_MEASURE_WITH_UNIT ( LENGTH_MEASURE( 0.02539999999999999900 ), #159 );
#29 = LINE ( 'NONE', #96, #30 ) ;
#30 = VECTOR ( 'NONE', #130, 39.37007874015748100 ) ;
#31 = CYLINDRICAL_SURFACE ( 'NONE', #186, 0.1329999999999997000 ) ;
#32 = CYLINDRICAL_SURFACE ( 'NONE', #211, 0.3284999999999999000 ) ;
#33 = CIRCLE ( 'NONE', #189, 0.1329999999999999200 ) ;
#34 = CIRCLE ( 'NONE', #188, 0.1329999999999999200 ) ;
#35 = FACE_BOUND ( 'NONE', #64, .T. ) ;
#36 = CIRCLE ( 'NONE', #183, 0.3284999999999999000 ) ;
#37 = FACE_OUTER_BOUND ( 'NONE', #65, .T. ) ;
#38 = FACE_OUTER_BOUND ( 'NONE', #67, .T. ) ;
#39 = CIRCLE ( 'NONE', #187, 0.3284999999999999000 ) ;
#40 = VECTOR ( 'NONE', #162, 39.37007874015748100 ) ;
#41 = CIRCLE ( 'NONE', #201, 0.3284999999999999000 ) ;
#42 = CIRCLE ( 'NONE', #182, 0.1329999999999995100 ) ;
#43 = LINE ( 'NONE', #144, #40 ) ;
#44 = LINE ( 'NONE', #119, #45 ) ;
#45 = VECTOR ( 'NONE', #90, 39.37007874015748100 ) ;
#46 = LENGTH_MEASURE_WITH_UNIT ( LENGTH_MEASURE( 0.02539999999999999900 ), #98 );
#47 = CYLINDRICAL_SURFACE ( 'NONE', #192, 0.1329999999999997000 ) ;
#48 = FACE_BOUND ( 'NONE', #62, .T. ) ;
#49 = FACE_OUTER_BOUND ( 'NONE', #60, .T. ) ;
#50 = FACE_OUTER_BOUND ( 'NONE', #1, .T. ) ;
#51 = FACE_OUTER_BOUND ( 'NONE', #63, .T. ) ;
#52 = CIRCLE ( 'NONE', #191, 0.3284999999999999000 ) ;
#53 = FACE_OUTER_BOUND ( 'NONE', #4, .T. ) ;
#54 = LENGTH_MEASURE_WITH_UNIT ( LENGTH_MEASURE( 0.02539999999999999900 ), #146 );
#55 = PRESENTATION_STYLE_ASSIGNMENT (( #177 ) ) ;
#56 = COLOUR_RGB ( '',0.0000000000000000000, 0.0000000000000000000, 1.000000000000000000 ) ;
#57 = SURFACE_STYLE_FILL_AREA ( #106 ) ;
#58 =( GEOMETRIC_REPRESENTATION_CONTEXT ( 3 ) GLOBAL_UNCERTAINTY_ASSIGNED_CONTEXT ( ( #85 ) ) GLOBAL_UNIT_ASSIGNED_CONTEXT ( ( #156, #172, #150 ) ) REPRESENTATION_CONTEXT ( 'NONE', 'WORKASPACE' ) );
#59 =( GEOMETRIC_REPRESENTATION_CONTEXT ( 3 ) GLOBAL_UNCERTAINTY_ASSIGNED_CONTEXT ( ( #83 ) ) GLOBAL_UNIT_ASSIGNED_CONTEXT ( ( #107, #99, #111 ) ) REPRESENTATION_CONTEXT ( 'NONE', 'WORKASPACE' ) );
#60 = EDGE_LOOP ( 'NONE', ( #12, #11, #14, #13 ) ) ;
#61 = COLOUR_RGB ( '',0.0000000000000000000, 0.0000000000000000000, 1.000000000000000000 ) ;
#62 = EDGE_LOOP ( 'NONE', ( #6, #9 ) ) ;
#63 = EDGE_LOOP ( 'NONE', ( #16, #8 ) ) ;
#64 = EDGE_LOOP ( 'NONE', ( #71, #70 ) ) ;
#65 = EDGE_LOOP ( 'NONE', ( #20, #74, #68, #69 ) ) ;
#66 = ORIENTED_EDGE ( 'NONE', *, *, #209, .F. ) ;
#67 = EDGE_LOOP ( 'NONE', ( #72, #21, #22, #19 ) ) ;
#68 = ORIENTED_EDGE ( 'NONE', *, *, #200, .T. ) ;
#69 = ORIENTED_EDGE ( 'NONE', *, *, #195, .F. ) ;
#70 = ORIENTED_EDGE ( 'NONE', *, *, #209, .T. ) ;
#71 = ORIENTED_EDGE ( 'NONE', *, *, #204, .T. ) ;
#72 = ORIENTED_EDGE ( 'NONE', *, *, #197, .T. ) ;
#73 = ORIENTED_EDGE ( 'NONE', *, *, #197, .F. ) ;
#74 = ORIENTED_EDGE ( 'NONE', *, *, #213, .T. ) ;
#75 = APPLICATION_PROTOCOL_DEFINITION ( 'draft international standard', 'automotive_design', 1998, #76 ) ;
#76 = APPLICATION_CONTEXT ( 'automotive_design' ) ;
#77 = APPLICATION_CONTEXT ( 'automotive_design' ) ;
#78 = DIRECTION ( 'NONE',  ( 1.000000000000000000, 0.0000000000000000000, 0.0000000000000000000 ) ) ;
#79 = DIRECTION ( 'NONE',  ( 0.0000000000000000000, 0.0000000000000000000, 1.000000000000000000 ) ) ;
#80 = APPLICATION_PROTOCOL_DEFINITION ( 'draft international standard', 'automotive_design', 1998, #77 ) ;
#81 = CARTESIAN_POINT ( 'NONE',  ( 0.0000000000000000000, 0.0000000000000000000, 0.0000000000000000000 ) ) ;
#82 = PRODUCT_CONTEXT ( 'NONE', #76, 'mechanical' ) ;
#83 = UNCERTAINTY_MEASURE_WITH_UNIT (LENGTH_MEASURE( 1.000000000000000100E-005 ), #107, 'distance_accuracy_value', 'NONE');
#84 = ADVANCED_BREP_SHAPE_REPRESENTATION ( 'D1100863-v1_aLIGO_SUS_HSTS_ADD-ON MASS 5g', ( #86, #206 ), #58 ) ;
#85 = UNCERTAINTY_MEASURE_WITH_UNIT (LENGTH_MEASURE( 1.000000000000000100E-005 ), #156, 'distance_accuracy_value', 'NONE');
#86 = MANIFOLD_SOLID_BREP ( '1/4 Clearance Hole1', #3 ) ;
#87 = UNCERTAINTY_MEASURE_WITH_UNIT (LENGTH_MEASURE( 1.000000000000000100E-005 ), #154, 'distance_accuracy_value', 'NONE');
#88 = PRODUCT_DEFINITION_CONTEXT ( 'detailed design', #77, 'design' ) ;
#89 = PRODUCT_DEFINITION_SHAPE ( 'NONE', 'NONE',  #207 ) ;
#90 = DIRECTION ( 'NONE',  ( 0.0000000000000000000, 0.0000000000000000000, 1.000000000000000000 ) ) ;
#91 = DIRECTION ( 'NONE',  ( 1.000000000000000000, 0.0000000000000000000, 0.0000000000000000000 ) ) ;
#92 = FILL_AREA_STYLE_COLOUR ( '', #56 ) ;
#93 = VERTEX_POINT ( 'NONE', #102 ) ;
#94 = VERTEX_POINT ( 'NONE', #134 ) ;
#95 = VERTEX_POINT ( 'NONE', #121 ) ;
#96 = CARTESIAN_POINT ( 'NONE',  ( -0.1329999999999997000, 1.628780242865976500E-017, 0.0000000000000000000 ) ) ;
#97 = VERTEX_POINT ( 'NONE', #163 ) ;
#98 =( LENGTH_UNIT ( ) NAMED_UNIT ( * ) SI_UNIT ( $, .METRE. ) );
#99 =( NAMED_UNIT ( * ) PLANE_ANGLE_UNIT ( ) SI_UNIT ( $, .RADIAN. ) );
#100 = DIRECTION ( 'NONE',  ( 1.000000000000000000, 0.0000000000000000000, 0.0000000000000000000 ) ) ;
#101 = DIRECTION ( 'NONE',  ( 1.000000000000000000, 0.0000000000000000000, 0.0000000000000000000 ) ) ;
#102 = CARTESIAN_POINT ( 'NONE',  ( -0.3284999999999999000, 4.022964735199054400E-017, 0.0000000000000000000 ) ) ;
#103 = DIRECTION ( 'NONE',  ( -0.0000000000000000000, -0.0000000000000000000, 1.000000000000000000 ) ) ;
#104 = DIRECTION ( 'NONE',  ( 0.0000000000000000000, 0.0000000000000000000, 1.000000000000000000 ) ) ;
#105 = FILL_AREA_STYLE_COLOUR ( '', #61 ) ;
#106 = FILL_AREA_STYLE ('',( #92 ) ) ;
#107 =( CONVERSION_BASED_UNIT ( 'INCH', #54 ) LENGTH_UNIT ( ) NAMED_UNIT ( #222 ) );
#108 = DIRECTION ( 'NONE',  ( 1.000000000000000000, 0.0000000000000000000, 0.0000000000000000000 ) ) ;
#109 = DIRECTION ( 'NONE',  ( -0.0000000000000000000, -0.0000000000000000000, 1.000000000000000000 ) ) ;
#110 = SURFACE_SIDE_STYLE ('',( #57 ) ) ;
#111 =( NAMED_UNIT ( * ) SI_UNIT ( $, .STERADIAN. ) SOLID_ANGLE_UNIT ( ) );
#112 = CARTESIAN_POINT ( 'NONE',  ( 0.1329999999999999200, 0.0000000000000000000, -0.4000000000000000200 ) ) ;
#113 = CARTESIAN_POINT ( 'NONE',  ( 0.0000000000000000000, 0.0000000000000000000, 0.0000000000000000000 ) ) ;
#114 = CARTESIAN_POINT ( 'NONE',  ( 0.0000000000000000000, 0.0000000000000000000, -0.4000000000000000200 ) ) ;
#115 = DIRECTION ( 'NONE',  ( 1.000000000000000000, 0.0000000000000000000, 0.0000000000000000000 ) ) ;
#116 = SURFACE_STYLE_USAGE ( .BOTH. , #167 ) ;
#117 = DIRECTION ( 'NONE',  ( 0.0000000000000000000, 0.0000000000000000000, 1.000000000000000000 ) ) ;
#118 = CARTESIAN_POINT ( 'NONE',  ( 0.0000000000000000000, 0.0000000000000000000, -0.4000000000000000200 ) ) ;
#119 = CARTESIAN_POINT ( 'NONE',  ( -0.3284999999999999000, 4.022964735199054400E-017, -0.4000000000000000200 ) ) ;
#120 = CARTESIAN_POINT ( 'NONE',  ( 0.1329999999999995100, 0.0000000000000000000, 4.494453752870776900E-017 ) ) ;
#121 = CARTESIAN_POINT ( 'NONE',  ( 0.3284999999999999000, 0.0000000000000000000, -0.4000000000000000200 ) ) ;
#122 = DIRECTION ( 'NONE',  ( 1.000000000000000000, 0.0000000000000000000, 0.0000000000000000000 ) ) ;
#123 = DIRECTION ( 'NONE',  ( 0.0000000000000000000, 0.0000000000000000000, 1.000000000000000000 ) ) ;
#124 = CARTESIAN_POINT ( 'NONE',  ( 0.0000000000000000000, 0.0000000000000000000, 0.0000000000000000000 ) ) ;
#125 = DIRECTION ( 'NONE',  ( 1.000000000000000000, 0.0000000000000000000, 0.0000000000000000000 ) ) ;
#126 = VERTEX_POINT ( 'NONE', #137 ) ;
#127 = CARTESIAN_POINT ( 'NONE',  ( -0.1329999999999995100, 1.628780242865974900E-017, 4.494453752870776900E-017 ) ) ;
#128 = VERTEX_POINT ( 'NONE', #127 ) ;
#129 = DIRECTION ( 'NONE',  ( 1.000000000000000000, 0.0000000000000000000, 0.0000000000000000000 ) ) ;
#130 = DIRECTION ( 'NONE',  ( -0.0000000000000000000, -0.0000000000000000000, 1.000000000000000000 ) ) ;
#131 = VERTEX_POINT ( 'NONE', #112 ) ;
#132 = DIRECTION ( 'NONE',  ( 1.000000000000000000, 0.0000000000000000000, 0.0000000000000000000 ) ) ;
#133 = CARTESIAN_POINT ( 'NONE',  ( 0.0000000000000000000, 0.0000000000000000000, -0.4000000000000000200 ) ) ;
#134 = CARTESIAN_POINT ( 'NONE',  ( -0.3284999999999999000, 4.022964735199054400E-017, -0.4000000000000000200 ) ) ;
#135 = DIRECTION ( 'NONE',  ( 1.000000000000000000, 0.0000000000000000000, 0.0000000000000000000 ) ) ;
#136 = DIRECTION ( 'NONE',  ( -0.0000000000000000000, -0.0000000000000000000, 1.000000000000000000 ) ) ;
#137 = CARTESIAN_POINT ( 'NONE',  ( 0.3284999999999999000, 0.0000000000000000000, 0.0000000000000000000 ) ) ;
#138 = CARTESIAN_POINT ( 'NONE',  ( 0.0000000000000000000, 0.0000000000000000000, 4.494453752870776900E-017 ) ) ;
#139 = DIRECTION ( 'NONE',  ( -0.0000000000000000000, -0.0000000000000000000, 1.000000000000000000 ) ) ;
#140 = DIRECTION ( 'NONE',  ( 1.000000000000000000, 0.0000000000000000000, 0.0000000000000000000 ) ) ;
#141 = DIRECTION ( 'NONE',  ( 0.0000000000000000000, 0.0000000000000000000, 1.000000000000000000 ) ) ;
#142 = CARTESIAN_POINT ( 'NONE',  ( 0.0000000000000000000, 0.0000000000000000000, 0.0000000000000000000 ) ) ;
#143 =( NAMED_UNIT ( * ) SI_UNIT ( $, .STERADIAN. ) SOLID_ANGLE_UNIT ( ) );
#144 = CARTESIAN_POINT ( 'NONE',  ( 0.1329999999999997000, 0.0000000000000000000, 0.0000000000000000000 ) ) ;
#145 = DIRECTION ( 'NONE',  ( -0.0000000000000000000, -0.0000000000000000000, 1.000000000000000000 ) ) ;
#146 =( LENGTH_UNIT ( ) NAMED_UNIT ( * ) SI_UNIT ( $, .METRE. ) );
#147 = CARTESIAN_POINT ( 'NONE',  ( 0.0000000000000000000, 0.0000000000000000000, -0.4000000000000000200 ) ) ;
#148 = DIRECTION ( 'NONE',  ( 1.000000000000000000, 0.0000000000000000000, 0.0000000000000000000 ) ) ;
#149 = DIRECTION ( 'NONE',  ( 0.0000000000000000000, 0.0000000000000000000, 1.000000000000000000 ) ) ;
#150 =( NAMED_UNIT ( * ) SI_UNIT ( $, .STERADIAN. ) SOLID_ANGLE_UNIT ( ) );
#151 = PLANE ( 'NONE',  #193 ) ;
#152 = CARTESIAN_POINT ( 'NONE',  ( 0.0000000000000000000, 0.0000000000000000000, -0.4000000000000000200 ) ) ;
#153 = CARTESIAN_POINT ( 'NONE',  ( 0.0000000000000000000, 0.0000000000000000000, 0.0000000000000000000 ) ) ;
#154 =( CONVERSION_BASED_UNIT ( 'INCH', #28 ) LENGTH_UNIT ( ) NAMED_UNIT ( #221 ) );
#155 = CARTESIAN_POINT ( 'NONE',  ( 0.0000000000000000000, 0.0000000000000000000, 0.0000000000000000000 ) ) ;
#156 =( CONVERSION_BASED_UNIT ( 'INCH', #46 ) LENGTH_UNIT ( ) NAMED_UNIT ( #223 ) );
#157 = CARTESIAN_POINT ( 'NONE',  ( 0.0000000000000000000, 0.0000000000000000000, -0.4000000000000000200 ) ) ;
#158 = CARTESIAN_POINT ( 'NONE',  ( 0.3284999999999999000, 0.0000000000000000000, -0.4000000000000000200 ) ) ;
#159 =( LENGTH_UNIT ( ) NAMED_UNIT ( * ) SI_UNIT ( $, .METRE. ) );
#160 = VERTEX_POINT ( 'NONE', #120 ) ;
#161 = CARTESIAN_POINT ( 'NONE',  ( 0.0000000000000000000, 0.0000000000000000000, 4.494453752870776900E-017 ) ) ;
#162 = DIRECTION ( 'NONE',  ( -0.0000000000000000000, -0.0000000000000000000, 1.000000000000000000 ) ) ;
#163 = CARTESIAN_POINT ( 'NONE',  ( -0.1329999999999999500, 1.628780242865979200E-017, -0.4000000000000000200 ) ) ;
#164 = DIRECTION ( 'NONE',  ( 0.0000000000000000000, 0.0000000000000000000, 1.000000000000000000 ) ) ;
#165 = CARTESIAN_POINT ( 'NONE',  ( 0.0000000000000000000, 0.0000000000000000000, -0.4000000000000000200 ) ) ;
#166 = DIRECTION ( 'NONE',  ( -0.0000000000000000000, -0.0000000000000000000, 1.000000000000000000 ) ) ;
#167 = SURFACE_SIDE_STYLE ('',( #2 ) ) ;
#168 = DIRECTION ( 'NONE',  ( 0.0000000000000000000, 0.0000000000000000000, 1.000000000000000000 ) ) ;
#169 = FILL_AREA_STYLE ('',( #105 ) ) ;
#170 =( NAMED_UNIT ( * ) PLANE_ANGLE_UNIT ( ) SI_UNIT ( $, .RADIAN. ) );
#171 = DIRECTION ( 'NONE',  ( 1.000000000000000000, 0.0000000000000000000, -0.0000000000000000000 ) ) ;
#172 =( NAMED_UNIT ( * ) PLANE_ANGLE_UNIT ( ) SI_UNIT ( $, .RADIAN. ) );
#173 = DIRECTION ( 'NONE',  ( 0.0000000000000000000, 0.0000000000000000000, 1.000000000000000000 ) ) ;
#174 = DIRECTION ( 'NONE',  ( 1.000000000000000000, 0.0000000000000000000, -0.0000000000000000000 ) ) ;
#175 = PLANE ( 'NONE',  #194 ) ;
#176 = DIRECTION ( 'NONE',  ( 0.0000000000000000000, 0.0000000000000000000, 1.000000000000000000 ) ) ;
#177 = SURFACE_STYLE_USAGE ( .BOTH. , #110 ) ;
#178 = STYLED_ITEM ( 'NONE', ( #25 ), #86 ) ;
#179 = EDGE_CURVE ( 'NONE', #128, #160, #26, .T. ) ;
#180 = PRESENTATION_LAYER_ASSIGNMENT (  '', '', ( #178 ) ) ;
#181 = EDGE_CURVE ( 'NONE', #97, #128, #29, .T. ) ;
#182 = AXIS2_PLACEMENT_3D ( 'NONE', #138, #139, #140 ) ;
#183 = AXIS2_PLACEMENT_3D ( 'NONE', #124, #149, #148 ) ;
#184 = EDGE_CURVE ( 'NONE', #94, #93, #44, .T. ) ;
#185 = AXIS2_PLACEMENT_3D ( 'NONE', #161, #166, #91 ) ;
#186 = AXIS2_PLACEMENT_3D ( 'NONE', #113, #109, #108 ) ;
#187 = AXIS2_PLACEMENT_3D ( 'NONE', #133, #117, #135 ) ;
#188 = AXIS2_PLACEMENT_3D ( 'NONE', #114, #103, #122 ) ;
#189 = AXIS2_PLACEMENT_3D ( 'NONE', #118, #136, #129 ) ;
#190 = EDGE_CURVE ( 'NONE', #160, #128, #42, .T. ) ;
#191 = AXIS2_PLACEMENT_3D ( 'NONE', #165, #164, #125 ) ;
#192 = AXIS2_PLACEMENT_3D ( 'NONE', #155, #145, #101 ) ;
#193 = AXIS2_PLACEMENT_3D ( 'NONE', #153, #176, #171 ) ;
#194 = AXIS2_PLACEMENT_3D ( 'NONE', #152, #173, #174 ) ;
#195 = EDGE_CURVE ( 'NONE', #93, #126, #41, .T. ) ;
#196 = PRESENTATION_LAYER_ASSIGNMENT (  '', '', ( #199 ) ) ;
#197 = EDGE_CURVE ( 'NONE', #95, #94, #39, .T. ) ;
#198 = MECHANICAL_DESIGN_GEOMETRIC_PRESENTATION_REPRESENTATION (  '', ( #199 ), #59 ) ;
#199 = STYLED_ITEM ( 'NONE', ( #55 ), #84 ) ;
#200 = EDGE_CURVE ( 'NONE', #95, #126, #7, .T. ) ;
#201 = AXIS2_PLACEMENT_3D ( 'NONE', #142, #141, #132 ) ;
#202 = EDGE_CURVE ( 'NONE', #126, #93, #36, .T. ) ;
#203 = MECHANICAL_DESIGN_GEOMETRIC_PRESENTATION_REPRESENTATION (  '', ( #178 ), #5 ) ;
#204 = EDGE_CURVE ( 'NONE', #131, #97, #34, .T. ) ;
#205 = PRODUCT_DEFINITION_FORMATION_WITH_SPECIFIED_SOURCE ( 'ANY', '', #214, .NOT_KNOWN. ) ;
#206 = AXIS2_PLACEMENT_3D ( 'NONE', #81, #79, #78 ) ;
#207 = PRODUCT_DEFINITION ( 'UNKNOWN', '', #205, #88 ) ;
#208 = PRODUCT_RELATED_PRODUCT_CATEGORY ( 'part', '', ( #214 ) ) ;
#209 = EDGE_CURVE ( 'NONE', #97, #131, #33, .T. ) ;
#210 = EDGE_CURVE ( 'NONE', #131, #160, #43, .T. ) ;
#211 = AXIS2_PLACEMENT_3D ( 'NONE', #147, #104, #115 ) ;
#212 = AXIS2_PLACEMENT_3D ( 'NONE', #157, #168, #100 ) ;
#213 = EDGE_CURVE ( 'NONE', #94, #95, #52, .T. ) ;
#214 = PRODUCT ( 'D1100863-v1_aLIGO_SUS_HSTS_ADD-ON MASS 5g', 'D1100863-v1_aLIGO_SUS_HSTS_ADD-ON MASS 5g', '', ( #82 ) ) ;
#215 = ADVANCED_FACE ( 'NONE', ( #37 ), #32, .T. ) ;
#216 = ADVANCED_FACE ( 'NONE', ( #53 ), #31, .F. ) ;
#217 = ADVANCED_FACE ( 'NONE', ( #38 ), #24, .T. ) ;
#218 = ADVANCED_FACE ( 'NONE', ( #35, #50 ), #175, .F. ) ;
#219 = ADVANCED_FACE ( 'NONE', ( #48, #51 ), #151, .T. ) ;
#220 = ADVANCED_FACE ( 'NONE', ( #49 ), #47, .F. ) ;
#221 = DIMENSIONAL_EXPONENTS ( 1.000000000000000000, 0.0000000000000000000, 0.0000000000000000000, 0.0000000000000000000, 0.0000000000000000000, 0.0000000000000000000, 0.0000000000000000000 ) ;
#222 = DIMENSIONAL_EXPONENTS ( 1.000000000000000000, 0.0000000000000000000, 0.0000000000000000000, 0.0000000000000000000, 0.0000000000000000000, 0.0000000000000000000, 0.0000000000000000000 ) ;
#223 = DIMENSIONAL_EXPONENTS ( 1.000000000000000000, 0.0000000000000000000, 0.0000000000000000000, 0.0000000000000000000, 0.0000000000000000000, 0.0000000000000000000, 0.0000000000000000000 ) ;
ENDSEC;
END-ISO-10303-21;
