ISO-10303-21;
HEADER;
FILE_DESCRIPTION (( 'STEP AP214' ),
    '1' );
FILE_NAME ('D1100844-v1_aLIGO_SUS_HSTS_UPPER BLADE CLAMP, LOWER SIDE, SHIM 4.77mm.STEP',
    '2011-05-10T16:29:50',
    ( '' ),
    ( '' ),
    'SwSTEP 2.0',
    'SolidWorks 2010',
    '' );
FILE_SCHEMA (( 'AUTOMOTIVE_DESIGN' ));
ENDSEC;

DATA;
#1 = DIRECTION ( 'NONE',  ( 1.000000000000000000, 0.0000000000000000000, -0.0000000000000000000 ) ) ;
#2 = FILL_AREA_STYLE_COLOUR ( '', #320 ) ;
#3 = DIRECTION ( 'NONE',  ( 0.0000000000000000000, 0.0000000000000000000, 1.000000000000000000 ) ) ;
#4 =( NAMED_UNIT ( * ) PLANE_ANGLE_UNIT ( ) SI_UNIT ( $, .RADIAN. ) );
#5 = SURFACE_STYLE_USAGE ( .BOTH. , #9 ) ;
#6 =( LENGTH_UNIT ( ) NAMED_UNIT ( * ) SI_UNIT ( $, .METRE. ) );
#7 =( NAMED_UNIT ( * ) SI_UNIT ( $, .STERADIAN. ) SOLID_ANGLE_UNIT ( ) );
#8 = FILL_AREA_STYLE ('',( #2 ) ) ;
#9 = SURFACE_SIDE_STYLE ('',( #319 ) ) ;
#10 = DIRECTION ( 'NONE',  ( -1.000000000000000000, 0.0000000000000000000, 0.0000000000000000000 ) ) ;
#11 = DIRECTION ( 'NONE',  ( -0.0000000000000000000, 1.000000000000000000, -0.0000000000000000000 ) ) ;
#12 = CARTESIAN_POINT ( 'NONE',  ( 0.7850000000000001400, 1.024442997624098700E-016, -0.7869999999999999200 ) ) ;
#13 = DIRECTION ( 'NONE',  ( -0.0000000000000000000, 0.0000000000000000000, -1.000000000000000000 ) ) ;
#14 = APPLICATION_PROTOCOL_DEFINITION ( 'draft international standard', 'automotive_design', 1998, #15 ) ;
#15 = APPLICATION_CONTEXT ( 'automotive_design' ) ;
#16 = PRODUCT_CONTEXT ( 'NONE', #18, 'mechanical' ) ;
#17 = APPLICATION_PROTOCOL_DEFINITION ( 'draft international standard', 'automotive_design', 1998, #18 ) ;
#18 = APPLICATION_CONTEXT ( 'automotive_design' ) ;
#19 = DIRECTION ( 'NONE',  ( 1.000000000000000000, 0.0000000000000000000, 0.0000000000000000000 ) ) ;
#20 = DIRECTION ( 'NONE',  ( 0.0000000000000000000, 0.0000000000000000000, 1.000000000000000000 ) ) ;
#21 = CARTESIAN_POINT ( 'NONE',  ( 0.0000000000000000000, 0.0000000000000000000, 0.0000000000000000000 ) ) ;
#22 =( NAMED_UNIT ( * ) PLANE_ANGLE_UNIT ( ) SI_UNIT ( $, .RADIAN. ) );
#23 =( CONVERSION_BASED_UNIT ( 'INCH', #323 ) LENGTH_UNIT ( ) NAMED_UNIT ( #347 ) );
#24 =( NAMED_UNIT ( * ) SI_UNIT ( $, .STERADIAN. ) SOLID_ANGLE_UNIT ( ) );
#25 = CARTESIAN_POINT ( 'NONE',  ( -0.3940000000000000200, 0.1877952755905512300, -0.3935000000000001300 ) ) ;
#26 =( LENGTH_UNIT ( ) NAMED_UNIT ( * ) SI_UNIT ( $, .METRE. ) );
#27 = DIRECTION ( 'NONE',  ( 1.000000000000000000, 0.0000000000000000000, -0.0000000000000000000 ) ) ;
#28 = DIRECTION ( 'NONE',  ( 0.0000000000000000000, 0.0000000000000000000, 1.000000000000000000 ) ) ;
#29 = DIRECTION ( 'NONE',  ( 0.0000000000000000000, 0.0000000000000000000, 1.000000000000000000 ) ) ;
#30 = PLANE ( 'NONE',  #207 ) ;
#31 = CARTESIAN_POINT ( 'NONE',  ( -0.7850000000000001400, -9.613159877505663000E-017, -0.7869999999999999200 ) ) ;
#32 =( CONVERSION_BASED_UNIT ( 'INCH', #316 ) LENGTH_UNIT ( ) NAMED_UNIT ( #357 ) );
#33 = DIRECTION ( 'NONE',  ( 0.0000000000000000000, 0.0000000000000000000, 1.000000000000000000 ) ) ;
#34 = CARTESIAN_POINT ( 'NONE',  ( -0.7850000000000001400, 0.1877952755905512300, 0.0000000000000000000 ) ) ;
#35 = VERTEX_POINT ( 'NONE', #145 ) ;
#36 = ADVANCED_BREP_SHAPE_REPRESENTATION ( 'D1100844-v1_aLIGO_SUS_HSTS_UPPER BLADE CLAMP, LOWER SIDE, SHIM 4.77mm', ( #40, #179 ), #287 ) ;
#37 = UNCERTAINTY_MEASURE_WITH_UNIT (LENGTH_MEASURE( 1.000000000000000100E-005 ), #23, 'distance_accuracy_value', 'NONE');
#38 = UNCERTAINTY_MEASURE_WITH_UNIT (LENGTH_MEASURE( 1.000000000000000100E-005 ), #32, 'distance_accuracy_value', 'NONE');
#39 = UNCERTAINTY_MEASURE_WITH_UNIT (LENGTH_MEASURE( 1.000000000000000100E-005 ), #52, 'distance_accuracy_value', 'NONE');
#40 = MANIFOLD_SOLID_BREP ( '1/4 Clearance Hole1', #218 ) ;
#41 = VERTEX_POINT ( 'NONE', #34 ) ;
#42 = VERTEX_POINT ( 'NONE', #55 ) ;
#43 = VERTEX_POINT ( 'NONE', #155 ) ;
#44 = VERTEX_POINT ( 'NONE', #56 ) ;
#45 = VERTEX_POINT ( 'NONE', #57 ) ;
#46 = VERTEX_POINT ( 'NONE', #58 ) ;
#47 = FILL_AREA_STYLE_COLOUR ( '', #284 ) ;
#48 = FILL_AREA_STYLE ('',( #47 ) ) ;
#49 = SURFACE_SIDE_STYLE ('',( #281 ) ) ;
#50 = SURFACE_STYLE_USAGE ( .BOTH. , #49 ) ;
#51 =( LENGTH_UNIT ( ) NAMED_UNIT ( * ) SI_UNIT ( $, .METRE. ) );
#52 =( CONVERSION_BASED_UNIT ( 'INCH', #215 ) LENGTH_UNIT ( ) NAMED_UNIT ( #350 ) );
#53 =( NAMED_UNIT ( * ) PLANE_ANGLE_UNIT ( ) SI_UNIT ( $, .RADIAN. ) );
#54 =( NAMED_UNIT ( * ) SI_UNIT ( $, .STERADIAN. ) SOLID_ANGLE_UNIT ( ) );
#55 = CARTESIAN_POINT ( 'NONE',  ( 0.3929999999999999600, -1.024442997624098700E-016, -0.5220000000000000200 ) ) ;
#56 = CARTESIAN_POINT ( 'NONE',  ( -0.3940000000000000200, -1.024442997624098700E-016, -0.5220000000000000200 ) ) ;
#57 = CARTESIAN_POINT ( 'NONE',  ( 0.7850000000000001400, 3.490128108393776100E-017, 0.0000000000000000000 ) ) ;
#58 = CARTESIAN_POINT ( 'NONE',  ( 0.3929999999999999600, 0.1877952755905512300, -0.5220000000000001300 ) ) ;
#59 = CARTESIAN_POINT ( 'NONE',  ( 0.7850000000000001400, 0.1877952755905511800, 0.0000000000000000000 ) ) ;
#60 = CARTESIAN_POINT ( 'NONE',  ( -0.7850000000000001400, 0.1877952755905512300, -0.7869999999999999200 ) ) ;
#61 = CARTESIAN_POINT ( 'NONE',  ( 0.7850000000000001400, 3.490128108393776100E-017, -0.7869999999999999200 ) ) ;
#62 = CARTESIAN_POINT ( 'NONE',  ( 0.3929999999999999600, -1.024442997624098700E-016, -0.2650000000000001800 ) ) ;
#63 = CARTESIAN_POINT ( 'NONE',  ( 0.7850000000000001400, 0.1877952755905511800, -0.7869999999999999200 ) ) ;
#64 = CARTESIAN_POINT ( 'NONE',  ( -0.3940000000000000200, 0.1877952755905512300, -0.2650000000000001200 ) ) ;
#65 = CARTESIAN_POINT ( 'NONE',  ( -0.3940000000000000200, -1.024442997624098700E-016, -0.2650000000000001200 ) ) ;
#66 = CARTESIAN_POINT ( 'NONE',  ( 0.3929999999999999600, 0.1877952755905512300, -0.2650000000000001200 ) ) ;
#67 = CARTESIAN_POINT ( 'NONE',  ( -0.3940000000000000200, 0.1877952755905512300, -0.2650000000000001200 ) ) ;
#68 = CARTESIAN_POINT ( 'NONE',  ( -0.3940000000000000200, 0.1877952755905512300, -0.3935000000000001300 ) ) ;
#69 = DIRECTION ( 'NONE',  ( -0.0000000000000000000, 1.000000000000000000, -0.0000000000000000000 ) ) ;
#70 = DIRECTION ( 'NONE',  ( 0.0000000000000000000, 0.0000000000000000000, 1.000000000000000000 ) ) ;
#71 = CARTESIAN_POINT ( 'NONE',  ( 0.3929999999999999600, -1.024442997624098700E-016, -0.3935000000000001300 ) ) ;
#72 = DIRECTION ( 'NONE',  ( -0.0000000000000000000, 1.000000000000000000, -0.0000000000000000000 ) ) ;
#73 = CARTESIAN_POINT ( 'NONE',  ( 0.7850000000000001400, 3.490128108393776100E-017, -0.7869999999999999200 ) ) ;
#74 = DIRECTION ( 'NONE',  ( -0.0000000000000000000, 1.000000000000000000, -0.0000000000000000000 ) ) ;
#75 = DIRECTION ( 'NONE',  ( 0.0000000000000000000, 0.0000000000000000000, 1.000000000000000000 ) ) ;
#76 = CARTESIAN_POINT ( 'NONE',  ( 0.3929999999999999600, 0.1877952755905512300, -0.3935000000000001300 ) ) ;
#77 = DIRECTION ( 'NONE',  ( -0.0000000000000000000, 1.000000000000000000, -0.0000000000000000000 ) ) ;
#78 = DIRECTION ( 'NONE',  ( 0.0000000000000000000, 0.0000000000000000000, 1.000000000000000000 ) ) ;
#79 = CARTESIAN_POINT ( 'NONE',  ( -0.7850000000000001400, -9.613159877505663000E-017, -0.7869999999999999200 ) ) ;
#80 = DIRECTION ( 'NONE',  ( 0.0000000000000000000, 0.0000000000000000000, 1.000000000000000000 ) ) ;
#81 = CARTESIAN_POINT ( 'NONE',  ( -0.7850000000000001400, -9.613159877505663000E-017, 0.0000000000000000000 ) ) ;
#82 = DIRECTION ( 'NONE',  ( -0.0000000000000000000, -1.000000000000000000, -0.0000000000000000000 ) ) ;
#83 = CARTESIAN_POINT ( 'NONE',  ( -0.7850000000000001400, 0.1877952755905512300, 0.0000000000000000000 ) ) ;
#84 = DIRECTION ( 'NONE',  ( -0.0000000000000000000, -1.000000000000000000, -0.0000000000000000000 ) ) ;
#85 = CARTESIAN_POINT ( 'NONE',  ( 0.3929999999999999600, 0.1877952755905512300, -0.3935000000000001300 ) ) ;
#86 = DIRECTION ( 'NONE',  ( -0.0000000000000000000, 1.000000000000000000, -0.0000000000000000000 ) ) ;
#87 = DIRECTION ( 'NONE',  ( 0.0000000000000000000, 0.0000000000000000000, 1.000000000000000000 ) ) ;
#88 = DIRECTION ( 'NONE',  ( -1.000000000000000000, 2.175038211516133000E-017, -0.0000000000000000000 ) ) ;
#89 = CARTESIAN_POINT ( 'NONE',  ( 0.3929999999999999600, 0.1877952755905512300, -0.5220000000000000200 ) ) ;
#90 = DIRECTION ( 'NONE',  ( -0.0000000000000000000, 1.000000000000000000, -0.0000000000000000000 ) ) ;
#91 = CARTESIAN_POINT ( 'NONE',  ( -0.3940000000000000200, 0.1877952755905512300, -0.3935000000000001300 ) ) ;
#92 = CARTESIAN_POINT ( 'NONE',  ( 0.7850000000000001400, 0.1877952755905511800, -0.7869999999999999200 ) ) ;
#93 = DIRECTION ( 'NONE',  ( -0.0000000000000000000, 1.000000000000000000, -0.0000000000000000000 ) ) ;
#94 = CARTESIAN_POINT ( 'NONE',  ( 0.3929999999999999600, -1.024442997624098700E-016, -0.3935000000000001300 ) ) ;
#95 = DIRECTION ( 'NONE',  ( -0.0000000000000000000, 1.000000000000000000, -0.0000000000000000000 ) ) ;
#96 = DIRECTION ( 'NONE',  ( 0.0000000000000000000, 0.0000000000000000000, 1.000000000000000000 ) ) ;
#97 = CARTESIAN_POINT ( 'NONE',  ( -0.3940000000000000200, 0.1877952755905512300, -0.5220000000000001300 ) ) ;
#98 = DIRECTION ( 'NONE',  ( -0.0000000000000000000, 1.000000000000000000, -0.0000000000000000000 ) ) ;
#99 = CARTESIAN_POINT ( 'NONE',  ( -0.3940000000000000200, -1.024442997624098700E-016, -0.3935000000000001300 ) ) ;
#100 = DIRECTION ( 'NONE',  ( -0.0000000000000000000, 1.000000000000000000, -0.0000000000000000000 ) ) ;
#101 = DIRECTION ( 'NONE',  ( 0.0000000000000000000, 0.0000000000000000000, 1.000000000000000000 ) ) ;
#102 = CARTESIAN_POINT ( 'NONE',  ( -0.3940000000000000200, -1.024442997624098700E-016, -0.3935000000000001300 ) ) ;
#103 = CARTESIAN_POINT ( 'NONE',  ( 0.0000000000000000000, 0.0000000000000000000, 0.0000000000000000000 ) ) ;
#104 = DIRECTION ( 'NONE',  ( -0.0000000000000000000, 1.000000000000000000, -0.0000000000000000000 ) ) ;
#105 = DIRECTION ( 'NONE',  ( 0.0000000000000000000, 0.0000000000000000000, 1.000000000000000000 ) ) ;
#106 = CARTESIAN_POINT ( 'NONE',  ( -0.7850000000000001400, -9.613159877505663000E-017, -0.7869999999999999200 ) ) ;
#107 = DIRECTION ( 'NONE',  ( 0.0000000000000000000, 0.0000000000000000000, 1.000000000000000000 ) ) ;
#108 = CARTESIAN_POINT ( 'NONE',  ( 0.7850000000000001400, 3.490128108393776100E-017, -0.7869999999999999200 ) ) ;
#109 = DIRECTION ( 'NONE',  ( 1.000000000000000000, 4.446023068017548400E-017, -0.0000000000000000000 ) ) ;
#110 = DIRECTION ( 'NONE',  ( 0.0000000000000000000, 0.0000000000000000000, 1.000000000000000000 ) ) ;
#111 = CARTESIAN_POINT ( 'NONE',  ( 0.7850000000000001400, 0.1877952755905511800, -0.7869999999999999200 ) ) ;
#112 = DIRECTION ( 'NONE',  ( 0.0000000000000000000, 0.0000000000000000000, 1.000000000000000000 ) ) ;
#113 = CARTESIAN_POINT ( 'NONE',  ( 0.3929999999999999600, 0.1877952755905512300, -0.2650000000000001200 ) ) ;
#114 = DIRECTION ( 'NONE',  ( -0.0000000000000000000, 1.000000000000000000, -0.0000000000000000000 ) ) ;
#115 = DIRECTION ( 'NONE',  ( -0.0000000000000000000, 1.000000000000000000, -0.0000000000000000000 ) ) ;
#116 = CARTESIAN_POINT ( 'NONE',  ( -0.7850000000000001400, 0.1877952755905512300, -0.7869999999999999200 ) ) ;
#117 = DIRECTION ( 'NONE',  ( -1.000000000000000000, 2.175038211516133000E-017, -0.0000000000000000000 ) ) ;
#118 = PLANE ( 'NONE',  #184 ) ;
#119 = DIRECTION ( 'NONE',  ( 1.000000000000000000, 1.224606353822377300E-016, -0.0000000000000000000 ) ) ;
#120 = CARTESIAN_POINT ( 'NONE',  ( -0.7850000000000001400, 0.1877952755905512300, -0.7869999999999999200 ) ) ;
#121 = DIRECTION ( 'NONE',  ( 0.0000000000000000000, 0.0000000000000000000, 1.000000000000000000 ) ) ;
#122 = CARTESIAN_POINT ( 'NONE',  ( -0.3940000000000000200, 0.1877952755905512300, -0.3935000000000001300 ) ) ;
#123 = CARTESIAN_POINT ( 'NONE',  ( 0.7850000000000001400, 0.1877952755905511800, 0.0000000000000000000 ) ) ;
#124 = DIRECTION ( 'NONE',  ( -0.0000000000000000000, 1.000000000000000000, -0.0000000000000000000 ) ) ;
#125 = PLANE ( 'NONE',  #189 ) ;
#126 = DIRECTION ( 'NONE',  ( 0.0000000000000000000, 0.0000000000000000000, 1.000000000000000000 ) ) ;
#127 = DIRECTION ( 'NONE',  ( 0.0000000000000000000, 0.0000000000000000000, 1.000000000000000000 ) ) ;
#128 = DIRECTION ( 'NONE',  ( -0.0000000000000000000, 1.000000000000000000, -0.0000000000000000000 ) ) ;
#129 = CARTESIAN_POINT ( 'NONE',  ( 0.0000000000000000000, 0.0000000000000000000, -0.7869999999999999200 ) ) ;
#130 = DIRECTION ( 'NONE',  ( 1.224606353822377300E-016, -1.000000000000000000, 0.0000000000000000000 ) ) ;
#131 = DIRECTION ( 'NONE',  ( 1.000000000000000000, 1.224606353822377300E-016, 0.0000000000000000000 ) ) ;
#132 = PLANE ( 'NONE',  #187 ) ;
#133 = CARTESIAN_POINT ( 'NONE',  ( -0.7850000000000001400, 0.1877952755905512300, -0.7869999999999999200 ) ) ;
#134 = DIRECTION ( 'NONE',  ( 2.175038211516132700E-017, 1.000000000000000000, -0.0000000000000000000 ) ) ;
#135 = DIRECTION ( 'NONE',  ( -1.000000000000000000, 2.175038211516132700E-017, 0.0000000000000000000 ) ) ;
#136 = PLANE ( 'NONE',  #210 ) ;
#137 = DIRECTION ( 'NONE',  ( 1.000000000000000000, 0.0000000000000000000, -0.0000000000000000000 ) ) ;
#138 = PLANE ( 'NONE',  #195 ) ;
#139 = CARTESIAN_POINT ( 'NONE',  ( 0.3929999999999999600, 0.1877952755905512300, -0.3935000000000001300 ) ) ;
#140 = CARTESIAN_POINT ( 'NONE',  ( 0.7850000000000001400, 0.1877952755905511800, -0.7869999999999999200 ) ) ;
#141 = CARTESIAN_POINT ( 'NONE',  ( 0.3929999999999999600, 0.1877952755905512300, -0.3935000000000001300 ) ) ;
#142 = CARTESIAN_POINT ( 'NONE',  ( 0.7850000000000001400, 1.024442997624098700E-016, 0.0000000000000000000 ) ) ;
#143 = DIRECTION ( 'NONE',  ( 0.0000000000000000000, 0.0000000000000000000, 1.000000000000000000 ) ) ;
#144 = DIRECTION ( 'NONE',  ( -0.0000000000000000000, 1.000000000000000000, -0.0000000000000000000 ) ) ;
#145 = CARTESIAN_POINT ( 'NONE',  ( -0.3940000000000000200, 0.1877952755905512300, -0.5220000000000001300 ) ) ;
#146 = VERTEX_POINT ( 'NONE', #59 ) ;
#147 = VERTEX_POINT ( 'NONE', #60 ) ;
#148 = VERTEX_POINT ( 'NONE', #154 ) ;
#149 = VERTEX_POINT ( 'NONE', #61 ) ;
#150 = VERTEX_POINT ( 'NONE', #62 ) ;
#151 = VERTEX_POINT ( 'NONE', #63 ) ;
#152 = VERTEX_POINT ( 'NONE', #64 ) ;
#153 = DIRECTION ( 'NONE',  ( -0.0000000000000000000, 1.000000000000000000, -0.0000000000000000000 ) ) ;
#154 = CARTESIAN_POINT ( 'NONE',  ( -0.7850000000000001400, -9.613159877505663000E-017, -0.7869999999999999200 ) ) ;
#155 = CARTESIAN_POINT ( 'NONE',  ( -0.7850000000000001400, -9.613159877505663000E-017, 0.0000000000000000000 ) ) ;
#156 = VERTEX_POINT ( 'NONE', #65 ) ;
#157 = VERTEX_POINT ( 'NONE', #66 ) ;
#158 = PRODUCT_DEFINITION_CONTEXT ( 'detailed design', #15, 'design' ) ;
#159 = PRODUCT_DEFINITION_SHAPE ( 'NONE', 'NONE',  #201 ) ;
#160 = EDGE_CURVE ( 'NONE', #152, #35, #271, .T. ) ;
#161 = EDGE_CURVE ( 'NONE', #156, #152, #338, .T. ) ;
#162 = STYLED_ITEM ( 'NONE', ( #293 ), #40 ) ;
#163 = EDGE_CURVE ( 'NONE', #42, #150, #341, .T. ) ;
#164 = EDGE_CURVE ( 'NONE', #46, #157, #280, .T. ) ;
#165 = MECHANICAL_DESIGN_GEOMETRIC_PRESENTATION_REPRESENTATION (  '', ( #162 ), #257 ) ;
#166 = EDGE_CURVE ( 'NONE', #149, #45, #246, .T. ) ;
#167 = EDGE_CURVE ( 'NONE', #147, #148, #224, .T. ) ;
#168 = EDGE_CURVE ( 'NONE', #41, #43, #253, .T. ) ;
#169 = STYLED_ITEM ( 'NONE', ( #318 ), #36 ) ;
#170 = EDGE_CURVE ( 'NONE', #157, #46, #315, .T. ) ;
#171 = AXIS2_PLACEMENT_3D ( 'NONE', #71, #74, #75 ) ;
#172 = EDGE_CURVE ( 'NONE', #146, #41, #312, .T. ) ;
#173 = PRESENTATION_LAYER_ASSIGNMENT (  '', '', ( #169 ) ) ;
#174 = EDGE_CURVE ( 'NONE', #42, #46, #276, .T. ) ;
#175 = EDGE_CURVE ( 'NONE', #149, #151, #324, .T. ) ;
#176 = EDGE_CURVE ( 'NONE', #150, #42, #242, .T. ) ;
#177 = PRESENTATION_LAYER_ASSIGNMENT (  '', '', ( #162 ) ) ;
#178 = MECHANICAL_DESIGN_GEOMETRIC_PRESENTATION_REPRESENTATION (  '', ( #169 ), #335 ) ;
#179 = AXIS2_PLACEMENT_3D ( 'NONE', #21, #20, #19 ) ;
#180 = EDGE_CURVE ( 'NONE', #44, #35, #277, .T. ) ;
#181 = AXIS2_PLACEMENT_3D ( 'NONE', #68, #69, #70 ) ;
#182 = AXIS2_PLACEMENT_3D ( 'NONE', #85, #86, #87 ) ;
#183 = EDGE_CURVE ( 'NONE', #44, #156, #231, .T. ) ;
#184 = AXIS2_PLACEMENT_3D ( 'NONE', #142, #28, #1 ) ;
#185 = EDGE_CURVE ( 'NONE', #156, #44, #304, .T. ) ;
#186 = EDGE_CURVE ( 'NONE', #148, #43, #241, .T. ) ;
#187 = AXIS2_PLACEMENT_3D ( 'NONE', #133, #134, #135 ) ;
#188 = EDGE_CURVE ( 'NONE', #148, #149, #303, .T. ) ;
#189 = AXIS2_PLACEMENT_3D ( 'NONE', #129, #130, #131 ) ;
#190 = EDGE_CURVE ( 'NONE', #35, #152, #322, .T. ) ;
#191 = PRODUCT_DEFINITION_FORMATION_WITH_SPECIFIED_SOURCE ( 'ANY', '', #212, .NOT_KNOWN. ) ;
#192 = EDGE_CURVE ( 'NONE', #151, #146, #314, .T. ) ;
#193 = AXIS2_PLACEMENT_3D ( 'NONE', #141, #144, #143 ) ;
#194 = AXIS2_PLACEMENT_3D ( 'NONE', #139, #128, #127 ) ;
#195 = AXIS2_PLACEMENT_3D ( 'NONE', #140, #137, #13 ) ;
#196 = EDGE_CURVE ( 'NONE', #150, #157, #344, .T. ) ;
#197 = AXIS2_PLACEMENT_3D ( 'NONE', #91, #153, #110 ) ;
#198 = EDGE_CURVE ( 'NONE', #151, #147, #219, .T. ) ;
#199 = EDGE_CURVE ( 'NONE', #43, #45, #243, .T. ) ;
#200 = EDGE_CURVE ( 'NONE', #147, #41, #255, .T. ) ;
#201 = PRODUCT_DEFINITION ( 'UNKNOWN', '', #191, #158 ) ;
#202 = AXIS2_PLACEMENT_3D ( 'NONE', #76, #77, #78 ) ;
#203 = AXIS2_PLACEMENT_3D ( 'NONE', #122, #115, #126 ) ;
#204 = AXIS2_PLACEMENT_3D ( 'NONE', #99, #100, #101 ) ;
#205 = PRODUCT_RELATED_PRODUCT_CATEGORY ( 'part', '', ( #212 ) ) ;
#206 = EDGE_CURVE ( 'NONE', #45, #146, #272, .T. ) ;
#207 = AXIS2_PLACEMENT_3D ( 'NONE', #31, #10, #33 ) ;
#208 = AXIS2_PLACEMENT_3D ( 'NONE', #25, #11, #3 ) ;
#209 = AXIS2_PLACEMENT_3D ( 'NONE', #102, #104, #105 ) ;
#210 = AXIS2_PLACEMENT_3D ( 'NONE', #12, #29, #27 ) ;
#211 = AXIS2_PLACEMENT_3D ( 'NONE', #94, #95, #96 ) ;
#212 = PRODUCT ( 'D1100844-v1_aLIGO_SUS_HSTS_UPPER BLADE CLAMP, LOWER SIDE, SHIM 4.77mm', 'D1100844-v1_aLIGO_SUS_HSTS_UPPER BLADE CLAMP, LOWER SIDE, SHIM 4.77mm', '', ( #16 ) ) ;
#213 = VECTOR ( 'NONE', #84, 39.37007874015748100 ) ;
#214 = ORIENTED_EDGE ( 'NONE', *, *, #172, .F. ) ;
#215 = LENGTH_MEASURE_WITH_UNIT ( LENGTH_MEASURE( 0.02539999999999999900 ), #51 );
#216 = FACE_BOUND ( 'NONE', #336, .T. ) ;
#217 = ORIENTED_EDGE ( 'NONE', *, *, #192, .F. ) ;
#218 = CLOSED_SHELL ( 'NONE', ( #358, #352, #349, #359, #351, #354, #356, #355, #353, #348 ) ) ;
#219 = LINE ( 'NONE', #116, #346 ) ;
#220 = VECTOR ( 'NONE', #93, 39.37007874015748100 ) ;
#221 = VECTOR ( 'NONE', #121, 39.37007874015748100 ) ;
#222 = ORIENTED_EDGE ( 'NONE', *, *, #186, .T. ) ;
#223 = FACE_OUTER_BOUND ( 'NONE', #252, .T. ) ;
#224 = LINE ( 'NONE', #79, #279 ) ;
#225 = FACE_OUTER_BOUND ( 'NONE', #239, .T. ) ;
#226 = EDGE_LOOP ( 'NONE', ( #337, #251, #282, #343 ) ) ;
#227 = EDGE_LOOP ( 'NONE', ( #233, #289, #229, #290 ) ) ;
#228 = ORIENTED_EDGE ( 'NONE', *, *, #190, .T. ) ;
#229 = ORIENTED_EDGE ( 'NONE', *, *, #161, .T. ) ;
#230 = ORIENTED_EDGE ( 'NONE', *, *, #176, .T. ) ;
#231 = CIRCLE ( 'NONE', #204, 0.1284999999999999800 ) ;
#232 = FACE_BOUND ( 'NONE', #244, .T. ) ;
#233 = ORIENTED_EDGE ( 'NONE', *, *, #180, .F. ) ;
#234 = VECTOR ( 'NONE', #119, 39.37007874015748100 ) ;
#235 = ORIENTED_EDGE ( 'NONE', *, *, #167, .T. ) ;
#236 = ORIENTED_EDGE ( 'NONE', *, *, #180, .T. ) ;
#237 = ORIENTED_EDGE ( 'NONE', *, *, #161, .F. ) ;
#238 = FACE_OUTER_BOUND ( 'NONE', #226, .T. ) ;
#239 = EDGE_LOOP ( 'NONE', ( #299, #295, #325, #298 ) ) ;
#240 = VECTOR ( 'NONE', #90, 39.37007874015748100 ) ;
#241 = LINE ( 'NONE', #106, #248 ) ;
#242 = CIRCLE ( 'NONE', #211, 0.1284999999999999500 ) ;
#243 = LINE ( 'NONE', #103, #234 ) ;
#244 = EDGE_LOOP ( 'NONE', ( #230, #306 ) ) ;
#245 = EDGE_LOOP ( 'NONE', ( #327, #236, #228, #237 ) ) ;
#246 = LINE ( 'NONE', #73, #326 ) ;
#247 = ORIENTED_EDGE ( 'NONE', *, *, #166, .F. ) ;
#248 = VECTOR ( 'NONE', #107, 39.37007874015748100 ) ;
#249 = ORIENTED_EDGE ( 'NONE', *, *, #188, .T. ) ;
#250 = ORIENTED_EDGE ( 'NONE', *, *, #172, .T. ) ;
#251 = ORIENTED_EDGE ( 'NONE', *, *, #167, .F. ) ;
#252 = EDGE_LOOP ( 'NONE', ( #214, #217, #261, #274 ) ) ;
#253 = LINE ( 'NONE', #81, #213 ) ;
#254 = CYLINDRICAL_SURFACE ( 'NONE', #208, 0.1285000000000000000 ) ;
#255 = LINE ( 'NONE', #120, #221 ) ;
#256 = EDGE_LOOP ( 'NONE', ( #342, #296, #249, #331 ) ) ;
#257 =( GEOMETRIC_REPRESENTATION_CONTEXT ( 3 ) GLOBAL_UNCERTAINTY_ASSIGNED_CONTEXT ( ( #39 ) ) GLOBAL_UNIT_ASSIGNED_CONTEXT ( ( #52, #53, #54 ) ) REPRESENTATION_CONTEXT ( 'NONE', 'WORKASPACE' ) );
#258 = ORIENTED_EDGE ( 'NONE', *, *, #196, .F. ) ;
#259 = ORIENTED_EDGE ( 'NONE', *, *, #164, .F. ) ;
#260 = ORIENTED_EDGE ( 'NONE', *, *, #170, .F. ) ;
#261 = ORIENTED_EDGE ( 'NONE', *, *, #198, .T. ) ;
#262 = ORIENTED_EDGE ( 'NONE', *, *, #206, .T. ) ;
#263 = ORIENTED_EDGE ( 'NONE', *, *, #164, .T. ) ;
#264 = FACE_BOUND ( 'NONE', #330, .T. ) ;
#265 = FACE_OUTER_BOUND ( 'NONE', #245, .T. ) ;
#266 = CYLINDRICAL_SURFACE ( 'NONE', #203, 0.1285000000000000000 ) ;
#267 = ORIENTED_EDGE ( 'NONE', *, *, #185, .T. ) ;
#268 = ORIENTED_EDGE ( 'NONE', *, *, #183, .T. ) ;
#269 = FACE_BOUND ( 'NONE', #329, .T. ) ;
#270 = ORIENTED_EDGE ( 'NONE', *, *, #175, .T. ) ;
#271 = CIRCLE ( 'NONE', #181, 0.1285000000000000000 ) ;
#272 = LINE ( 'NONE', #123, #334 ) ;
#273 = ORIENTED_EDGE ( 'NONE', *, *, #168, .T. ) ;
#274 = ORIENTED_EDGE ( 'NONE', *, *, #200, .T. ) ;
#275 = ORIENTED_EDGE ( 'NONE', *, *, #163, .F. ) ;
#276 = LINE ( 'NONE', #89, #240 ) ;
#277 = LINE ( 'NONE', #97, #333 ) ;
#278 = FACE_OUTER_BOUND ( 'NONE', #256, .T. ) ;
#279 = VECTOR ( 'NONE', #82, 39.37007874015748100 ) ;
#280 = CIRCLE ( 'NONE', #202, 0.1285000000000000000 ) ;
#281 = SURFACE_STYLE_FILL_AREA ( #48 ) ;
#282 = ORIENTED_EDGE ( 'NONE', *, *, #198, .F. ) ;
#283 = ORIENTED_EDGE ( 'NONE', *, *, #200, .F. ) ;
#284 = COLOUR_RGB ( '',1.000000000000000000, 0.0000000000000000000, 0.0000000000000000000 ) ;
#285 = FACE_OUTER_BOUND ( 'NONE', #328, .T. ) ;
#286 = CYLINDRICAL_SURFACE ( 'NONE', #193, 0.1284999999999999800 ) ;
#287 =( GEOMETRIC_REPRESENTATION_CONTEXT ( 3 ) GLOBAL_UNCERTAINTY_ASSIGNED_CONTEXT ( ( #38 ) ) GLOBAL_UNIT_ASSIGNED_CONTEXT ( ( #32, #4, #7 ) ) REPRESENTATION_CONTEXT ( 'NONE', 'WORKASPACE' ) );
#288 = VECTOR ( 'NONE', #114, 39.37007874015748100 ) ;
#289 = ORIENTED_EDGE ( 'NONE', *, *, #185, .F. ) ;
#290 = ORIENTED_EDGE ( 'NONE', *, *, #160, .T. ) ;
#291 = ORIENTED_EDGE ( 'NONE', *, *, #206, .F. ) ;
#292 = ORIENTED_EDGE ( 'NONE', *, *, #199, .T. ) ;
#293 = PRESENTATION_STYLE_ASSIGNMENT (( #50 ) ) ;
#294 = ORIENTED_EDGE ( 'NONE', *, *, #190, .F. ) ;
#295 = ORIENTED_EDGE ( 'NONE', *, *, #176, .F. ) ;
#296 = ORIENTED_EDGE ( 'NONE', *, *, #186, .F. ) ;
#297 = FACE_OUTER_BOUND ( 'NONE', #227, .T. ) ;
#298 = ORIENTED_EDGE ( 'NONE', *, *, #170, .T. ) ;
#299 = ORIENTED_EDGE ( 'NONE', *, *, #174, .F. ) ;
#300 = EDGE_LOOP ( 'NONE', ( #292, #262, #250, #273 ) ) ;
#301 = VECTOR ( 'NONE', #109, 39.37007874015748100 ) ;
#302 = FACE_OUTER_BOUND ( 'NONE', #300, .T. ) ;
#303 = LINE ( 'NONE', #108, #301 ) ;
#304 = CIRCLE ( 'NONE', #209, 0.1284999999999999800 ) ;
#305 = VECTOR ( 'NONE', #112, 39.37007874015748100 ) ;
#306 = ORIENTED_EDGE ( 'NONE', *, *, #163, .T. ) ;
#307 = VECTOR ( 'NONE', #88, 39.37007874015748100 ) ;
#308 = EDGE_LOOP ( 'NONE', ( #291, #247, #270, #310 ) ) ;
#309 = SHAPE_DEFINITION_REPRESENTATION ( #159, #36 ) ;
#310 = ORIENTED_EDGE ( 'NONE', *, *, #192, .T. ) ;
#311 = EDGE_LOOP ( 'NONE', ( #321, #283, #235, #222 ) ) ;
#312 = LINE ( 'NONE', #83, #307 ) ;
#313 = ORIENTED_EDGE ( 'NONE', *, *, #160, .F. ) ;
#314 = LINE ( 'NONE', #111, #305 ) ;
#315 = CIRCLE ( 'NONE', #182, 0.1285000000000000000 ) ;
#316 = LENGTH_MEASURE_WITH_UNIT ( LENGTH_MEASURE( 0.02539999999999999900 ), #26 );
#317 = FACE_OUTER_BOUND ( 'NONE', #311, .T. ) ;
#318 = PRESENTATION_STYLE_ASSIGNMENT (( #5 ) ) ;
#319 = SURFACE_STYLE_FILL_AREA ( #8 ) ;
#320 = COLOUR_RGB ( '',1.000000000000000000, 0.0000000000000000000, 0.0000000000000000000 ) ;
#321 = ORIENTED_EDGE ( 'NONE', *, *, #168, .F. ) ;
#322 = CIRCLE ( 'NONE', #197, 0.1285000000000000000 ) ;
#323 = LENGTH_MEASURE_WITH_UNIT ( LENGTH_MEASURE( 0.02539999999999999900 ), #6 );
#324 = LINE ( 'NONE', #92, #220 ) ;
#325 = ORIENTED_EDGE ( 'NONE', *, *, #196, .T. ) ;
#326 = VECTOR ( 'NONE', #80, 39.37007874015748100 ) ;
#327 = ORIENTED_EDGE ( 'NONE', *, *, #183, .F. ) ;
#328 = EDGE_LOOP ( 'NONE', ( #275, #340, #263, #258 ) ) ;
#329 = EDGE_LOOP ( 'NONE', ( #313, #294 ) ) ;
#330 = EDGE_LOOP ( 'NONE', ( #260, #259 ) ) ;
#331 = ORIENTED_EDGE ( 'NONE', *, *, #166, .T. ) ;
#332 = FACE_OUTER_BOUND ( 'NONE', #308, .T. ) ;
#333 = VECTOR ( 'NONE', #98, 39.37007874015748100 ) ;
#334 = VECTOR ( 'NONE', #124, 39.37007874015748100 ) ;
#335 =( GEOMETRIC_REPRESENTATION_CONTEXT ( 3 ) GLOBAL_UNCERTAINTY_ASSIGNED_CONTEXT ( ( #37 ) ) GLOBAL_UNIT_ASSIGNED_CONTEXT ( ( #23, #22, #24 ) ) REPRESENTATION_CONTEXT ( 'NONE', 'WORKASPACE' ) );
#336 = EDGE_LOOP ( 'NONE', ( #267, #268 ) ) ;
#337 = ORIENTED_EDGE ( 'NONE', *, *, #188, .F. ) ;
#338 = LINE ( 'NONE', #67, #345 ) ;
#339 = CYLINDRICAL_SURFACE ( 'NONE', #194, 0.1284999999999999800 ) ;
#340 = ORIENTED_EDGE ( 'NONE', *, *, #174, .T. ) ;
#341 = CIRCLE ( 'NONE', #171, 0.1284999999999999500 ) ;
#342 = ORIENTED_EDGE ( 'NONE', *, *, #199, .F. ) ;
#343 = ORIENTED_EDGE ( 'NONE', *, *, #175, .F. ) ;
#344 = LINE ( 'NONE', #113, #288 ) ;
#345 = VECTOR ( 'NONE', #72, 39.37007874015748100 ) ;
#346 = VECTOR ( 'NONE', #117, 39.37007874015748100 ) ;
#347 = DIMENSIONAL_EXPONENTS ( 1.000000000000000000, 0.0000000000000000000, 0.0000000000000000000, 0.0000000000000000000, 0.0000000000000000000, 0.0000000000000000000, 0.0000000000000000000 ) ;
#348 = ADVANCED_FACE ( 'NONE', ( #297 ), #266, .F. ) ;
#349 = ADVANCED_FACE ( 'NONE', ( #216, #232, #278 ), #125, .T. ) ;
#350 = DIMENSIONAL_EXPONENTS ( 1.000000000000000000, 0.0000000000000000000, 0.0000000000000000000, 0.0000000000000000000, 0.0000000000000000000, 0.0000000000000000000, 0.0000000000000000000 ) ;
#351 = ADVANCED_FACE ( 'NONE', ( #269, #264, #223 ), #132, .T. ) ;
#352 = ADVANCED_FACE ( 'NONE', ( #285 ), #339, .F. ) ;
#353 = ADVANCED_FACE ( 'NONE', ( #225 ), #286, .F. ) ;
#354 = ADVANCED_FACE ( 'NONE', ( #332 ), #138, .T. ) ;
#355 = ADVANCED_FACE ( 'NONE', ( #302 ), #118, .T. ) ;
#356 = ADVANCED_FACE ( 'NONE', ( #238 ), #136, .F. ) ;
#357 = DIMENSIONAL_EXPONENTS ( 1.000000000000000000, 0.0000000000000000000, 0.0000000000000000000, 0.0000000000000000000, 0.0000000000000000000, 0.0000000000000000000, 0.0000000000000000000 ) ;
#358 = ADVANCED_FACE ( 'NONE', ( #265 ), #254, .F. ) ;
#359 = ADVANCED_FACE ( 'NONE', ( #317 ), #30, .T. ) ;
ENDSEC;
END-ISO-10303-21;
