ISO-10303-21;
HEADER;
FILE_DESCRIPTION (( 'STEP AP203' ),
    '1' );
FILE_NAME ('D1001534-v1_aLIGO_SUS_Magnetic Plug, SUS.STEP',
    '2010-06-14T20:23:37',
    ( 'Dwayne Giardina' ),
    ( 'CA Institute of Technology' ),
    'SwSTEP 2.0',
    'SolidWorks 2009',
    '' );
FILE_SCHEMA (( 'CONFIG_CONTROL_DESIGN' ));
ENDSEC;

DATA;
#1 = AXIS2_PLACEMENT_3D ( 'NONE', #144, #143, #149 ) ;
#2 = AXIS2_PLACEMENT_3D ( 'NONE', #167, #83, #82 ) ;
#3 = EDGE_CURVE ( 'NONE', #92, #86, #227, .T. ) ;
#4 = CC_DESIGN_PERSON_AND_ORGANIZATION_ASSIGNMENT ( #274, #132, ( #10 ) ) ;
#5 = AXIS2_PLACEMENT_3D ( 'NONE', #103, #102, #104 ) ;
#6 = CC_DESIGN_DATE_AND_TIME_ASSIGNMENT ( #213, #137, ( #275 ) ) ;
#7 = APPROVAL ( #128, 'UNSPECIFIED' ) ;
#8 = AXIS2_PLACEMENT_3D ( 'NONE', #140, #152, #153 ) ;
#9 = APPROVAL ( #146, 'UNSPECIFIED' ) ;
#10 = PRODUCT_DEFINITION_FORMATION_WITH_SPECIFIED_SOURCE ( 'ANY', '', #64, .NOT_KNOWN. ) ;
#11 = AXIS2_PLACEMENT_3D ( 'NONE', #157, #161, #158 ) ;
#12 = CC_DESIGN_PERSON_AND_ORGANIZATION_ASSIGNMENT ( #220, #138, ( #275 ) ) ;
#13 = AXIS2_PLACEMENT_3D ( 'NONE', #72, #74, #73 ) ;
#14 = CC_DESIGN_DATE_AND_TIME_ASSIGNMENT ( #182, #130, ( #47 ) ) ;
#15 = EDGE_CURVE ( 'NONE', #80, #86, #254, .T. ) ;
#16 = EDGE_CURVE ( 'NONE', #85, #80, #206, .T. ) ;
#17 = EDGE_CURVE ( 'NONE', #67, #86, #187, .T. ) ;
#18 = EDGE_CURVE ( 'NONE', #67, #68, #229, .T. ) ;
#19 = EDGE_CURVE ( 'NONE', #168, #80, #266, .T. ) ;
#20 = EDGE_CURVE ( 'NONE', #81, #85, #259, .T. ) ;
#21 = AXIS2_PLACEMENT_3D ( 'NONE', #107, #106, #65 ) ;
#22 = APPROVAL ( #125, 'UNSPECIFIED' ) ;
#23 = CC_DESIGN_PERSON_AND_ORGANIZATION_ASSIGNMENT ( #210, #119, ( #64 ) ) ;
#24 = AXIS2_PLACEMENT_3D ( 'NONE', #84, #139, #141 ) ;
#25 = AXIS2_PLACEMENT_3D ( 'NONE', #159, #160, #66 ) ;
#26 = EDGE_CURVE ( 'NONE', #86, #92, #195, .T. ) ;
#27 = PRODUCT_RELATED_PRODUCT_CATEGORY ( 'detail', '', ( #64 ) ) ;
#28 = EDGE_CURVE ( 'NONE', #68, #67, #225, .T. ) ;
#29 = AXIS2_PLACEMENT_3D ( 'NONE', #96, #97, #98 ) ;
#30 = AXIS2_PLACEMENT_3D ( 'NONE', #147, #150, #117 ) ;
#31 = AXIS2_PLACEMENT_3D ( 'NONE', #100, #99, #112 ) ;
#32 = CC_DESIGN_PERSON_AND_ORGANIZATION_ASSIGNMENT ( #271, #133, ( #10 ) ) ;
#33 = AXIS2_PLACEMENT_3D ( 'NONE', #154, #156, #155 ) ;
#34 = AXIS2_PLACEMENT_3D ( 'NONE', #70, #124, #129 ) ;
#35 = CC_DESIGN_APPROVAL ( #7, ( #10 ) ) ;
#36 = EDGE_CURVE ( 'NONE', #85, #92, #199, .T. ) ;
#37 = AXIS2_PLACEMENT_3D ( 'NONE', #110, #111, #113 ) ;
#38 = EDGE_CURVE ( 'NONE', #80, #85, #248, .T. ) ;
#39 = AXIS2_PLACEMENT_3D ( 'NONE', #116, #123, #142 ) ;
#40 = EDGE_CURVE ( 'NONE', #68, #92, #251, .T. ) ;
#41 = CC_DESIGN_SECURITY_CLASSIFICATION ( #275, ( #10 ) ) ;
#42 = EDGE_CURVE ( 'NONE', #168, #81, #224, .T. ) ;
#43 = AXIS2_PLACEMENT_3D ( 'NONE', #162, #163, #108 ) ;
#44 = CC_DESIGN_APPROVAL ( #22, ( #47 ) ) ;
#45 = EDGE_CURVE ( 'NONE', #81, #168, #175, .T. ) ;
#46 = CC_DESIGN_APPROVAL ( #9, ( #275 ) ) ;
#47 = PRODUCT_DEFINITION ( 'UNKNOWN', '', #10, #61 ) ;
#48 = CC_DESIGN_PERSON_AND_ORGANIZATION_ASSIGNMENT ( #228, #126, ( #47 ) ) ;
#49 = ADVANCED_FACE ( 'NONE', ( #247 ), #151, .T. ) ;
#50 = ADVANCED_FACE ( 'NONE', ( #265 ), #190, .T. ) ;
#51 = ADVANCED_FACE ( 'NONE', ( #237 ), #105, .F. ) ;
#52 = ADVANCED_FACE ( 'NONE', ( #250 ), #217, .T. ) ;
#53 = ADVANCED_FACE ( 'NONE', ( #278 ), #209, .T. ) ;
#54 = ADVANCED_FACE ( 'NONE', ( #177 ), #189, .T. ) ;
#55 = DIMENSIONAL_EXPONENTS ( 1.000000000000000000, 0.0000000000000000000, 0.0000000000000000000, 0.0000000000000000000, 0.0000000000000000000, 0.0000000000000000000, 0.0000000000000000000 ) ;
#56 = ADVANCED_FACE ( 'NONE', ( #270 ), #268, .T. ) ;
#57 = ADVANCED_FACE ( 'NONE', ( #269 ), #192, .T. ) ;
#58 = MANIFOLD_SOLID_BREP ( 'NONE', #170 ) ;
#59 = UNCERTAINTY_MEASURE_WITH_UNIT (LENGTH_MEASURE( 1.000000000000000100E-005 ), #91, 'distance_accuracy_value', 'NONE');
#60 = ADVANCED_BREP_SHAPE_REPRESENTATION ( 'D1001534-v1_aLIGO_SUS_Magnetic Plug, SUS', ( #58, #2 ), #203 ) ;
#61 = DESIGN_CONTEXT ( 'detailed design', #121, 'design' ) ;
#62 = PRODUCT_DEFINITION_SHAPE ( 'NONE', 'NONE',  #47 ) ;
#63 = PERSON ( 'UNSPECIFIED', 'UNSPECIFIED', 'UNSPECIFIED', ('UNSPECIFIED'), ('UNSPECIFIED'), ('UNSPECIFIED') ) ;
#64 = PRODUCT ( 'D1001534-v1_aLIGO_SUS_Magnetic Plug, SUS', 'D1001534-v1_aLIGO_SUS_Magnetic Plug, SUS', '', ( #120 ) ) ;
#65 = DIRECTION ( 'NONE',  ( 0.0000000000000000000, -0.0000000000000000000, 1.000000000000000000 ) ) ;
#66 = DIRECTION ( 'NONE',  ( 0.0000000000000000000, -0.0000000000000000000, 1.000000000000000000 ) ) ;
#67 = VERTEX_POINT ( 'NONE', #75 ) ;
#68 = VERTEX_POINT ( 'NONE', #76 ) ;
#69 = CARTESIAN_POINT ( 'NONE',  ( 0.0000000000000000000, 0.03937007874015748000, -0.1930944881889764000 ) ) ;
#70 = CARTESIAN_POINT ( 'NONE',  ( 0.0000000000000000000, 0.005905511811023586400, 0.0000000000000000000 ) ) ;
#71 = CARTESIAN_POINT ( 'NONE',  ( 0.0000000000000000000, 0.03346456692913372200, -0.1990000000000000100 ) ) ;
#72 = CARTESIAN_POINT ( 'NONE',  ( 0.0000000000000000000, 0.03937007874015748000, 0.0000000000000000000 ) ) ;
#73 = DIRECTION ( 'NONE',  ( 0.0000000000000000000, 0.0000000000000000000, -1.000000000000000000 ) ) ;
#74 = DIRECTION ( 'NONE',  ( -0.0000000000000000000, -1.000000000000000000, -0.0000000000000000000 ) ) ;
#75 = CARTESIAN_POINT ( 'NONE',  ( 0.0000000000000000000, 0.0000000000000000000, 0.1930944881889764300 ) ) ;
#76 = CARTESIAN_POINT ( 'NONE',  ( 2.400886299619748100E-017, 0.0000000000000000000, -0.1930944881889764300 ) ) ;
#77 = CARTESIAN_POINT ( 'NONE',  ( 2.437047130303233000E-017, 0.03346456692913372200, 0.1990000000000000100 ) ) ;
#78 = CARTESIAN_POINT ( 'NONE',  ( 0.0000000000000000000, 0.03937007874015748000, -0.1930944881889764000 ) ) ;
#79 = DIRECTION ( 'NONE',  ( 0.0000000000000000000, -0.7071067811865556800, -0.7071067811865393600 ) ) ;
#80 = VERTEX_POINT ( 'NONE', #77 ) ;
#81 = VERTEX_POINT ( 'NONE', #78 ) ;
#82 = DIRECTION ( 'NONE',  ( 1.000000000000000000, 0.0000000000000000000, 0.0000000000000000000 ) ) ;
#83 = DIRECTION ( 'NONE',  ( 0.0000000000000000000, 0.0000000000000000000, 1.000000000000000000 ) ) ;
#84 = CARTESIAN_POINT ( 'NONE',  ( 0.0000000000000000000, 0.03346456692913372200, 0.0000000000000000000 ) ) ;
#85 = VERTEX_POINT ( 'NONE', #71 ) ;
#86 = VERTEX_POINT ( 'NONE', #87 ) ;
#87 = CARTESIAN_POINT ( 'NONE',  ( 2.437047130303233000E-017, 0.005905511811023586400, 0.1990000000000000100 ) ) ;
#88 = CARTESIAN_POINT ( 'NONE',  ( 0.0000000000000000000, 0.005905511811023586400, -0.1990000000000000100 ) ) ;
#89 = CARTESIAN_POINT ( 'NONE',  ( 2.400886299619748100E-017, 0.03937007874015748000, 0.1930944881889764000 ) ) ;
#90 =( LENGTH_UNIT ( ) NAMED_UNIT ( * ) SI_UNIT ( $, .METRE. ) );
#91 =( CONVERSION_BASED_UNIT ( 'INCH', #226 ) LENGTH_UNIT ( ) NAMED_UNIT ( #55 ) );
#92 = VERTEX_POINT ( 'NONE', #88 ) ;
#93 =( NAMED_UNIT ( * ) PLANE_ANGLE_UNIT ( ) SI_UNIT ( $, .RADIAN. ) );
#94 =( NAMED_UNIT ( * ) SI_UNIT ( $, .STERADIAN. ) SOLID_ANGLE_UNIT ( ) );
#95 = DIRECTION ( 'NONE',  ( 8.659560562354932900E-017, 0.7071067811865474600, -0.7071067811865474600 ) ) ;
#96 = CARTESIAN_POINT ( 'NONE',  ( 0.0000000000000000000, 0.03937007874015748000, 0.0000000000000000000 ) ) ;
#97 = DIRECTION ( 'NONE',  ( 0.0000000000000000000, 1.000000000000000000, 0.0000000000000000000 ) ) ;
#98 = DIRECTION ( 'NONE',  ( 0.0000000000000000000, 0.0000000000000000000, 1.000000000000000000 ) ) ;
#99 = DIRECTION ( 'NONE',  ( 0.0000000000000000000, 1.000000000000000000, 0.0000000000000000000 ) ) ;
#100 = CARTESIAN_POINT ( 'NONE',  ( 0.0000000000000000000, 0.03937007874015748000, 0.0000000000000000000 ) ) ;
#101 = APPROVAL_ROLE ( '' ) ;
#102 = DIRECTION ( 'NONE',  ( -0.0000000000000000000, 1.000000000000000000, -0.0000000000000000000 ) ) ;
#103 = CARTESIAN_POINT ( 'NONE',  ( 0.0000000000000000000, 0.005905511811023586400, 0.0000000000000000000 ) ) ;
#104 = DIRECTION ( 'NONE',  ( 0.0000000000000000000, 0.0000000000000000000, 1.000000000000000000 ) ) ;
#105 = PLANE ( 'NONE',  #21 ) ;
#106 = DIRECTION ( 'NONE',  ( 0.0000000000000000000, 1.000000000000000000, 0.0000000000000000000 ) ) ;
#107 = CARTESIAN_POINT ( 'NONE',  ( 0.0000000000000000000, 0.0000000000000000000, 0.0000000000000000000 ) ) ;
#108 = DIRECTION ( 'NONE',  ( 0.0000000000000000000, 0.0000000000000000000, -1.000000000000000000 ) ) ;
#109 = DIRECTION ( 'NONE',  ( 0.0000000000000000000, 0.7071067811865474600, 0.7071067811865474600 ) ) ;
#110 = CARTESIAN_POINT ( 'NONE',  ( 0.0000000000000000000, 0.005905511811023586400, 0.0000000000000000000 ) ) ;
#111 = DIRECTION ( 'NONE',  ( -0.0000000000000000000, 1.000000000000000000, -0.0000000000000000000 ) ) ;
#112 = DIRECTION ( 'NONE',  ( 0.0000000000000000000, 0.0000000000000000000, 1.000000000000000000 ) ) ;
#113 = DIRECTION ( 'NONE',  ( 0.0000000000000000000, 0.0000000000000000000, 1.000000000000000000 ) ) ;
#114 = APPLICATION_CONTEXT ( 'configuration controlled 3d designs of mechanical parts and assemblies' ) ;
#115 = APPLICATION_PROTOCOL_DEFINITION ( 'international standard', 'config_control_design', 1994, #114 ) ;
#116 = CARTESIAN_POINT ( 'NONE',  ( 0.0000000000000000000, 0.0000000000000000000, 0.0000000000000000000 ) ) ;
#117 = DIRECTION ( 'NONE',  ( 0.0000000000000000000, 0.0000000000000000000, -1.000000000000000000 ) ) ;
#118 = DIRECTION ( 'NONE',  ( 8.659560562354831800E-017, -0.7071067811865556800, 0.7071067811865393600 ) ) ;
#119 = PERSON_AND_ORGANIZATION_ROLE ( 'design_owner' ) ;
#120 = MECHANICAL_CONTEXT ( 'NONE', #114, 'mechanical' ) ;
#121 = APPLICATION_CONTEXT ( 'configuration controlled 3d designs of mechanical parts and assemblies' ) ;
#122 = APPLICATION_PROTOCOL_DEFINITION ( 'international standard', 'config_control_design', 1994, #121 ) ;
#123 = DIRECTION ( 'NONE',  ( -0.0000000000000000000, -1.000000000000000000, -0.0000000000000000000 ) ) ;
#124 = DIRECTION ( 'NONE',  ( -0.0000000000000000000, 1.000000000000000000, -0.0000000000000000000 ) ) ;
#125 = APPROVAL_STATUS ( 'not_yet_approved' ) ;
#126 = PERSON_AND_ORGANIZATION_ROLE ( 'creator' ) ;
#127 = APPROVAL_ROLE ( '' ) ;
#128 = APPROVAL_STATUS ( 'not_yet_approved' ) ;
#129 = DIRECTION ( 'NONE',  ( 0.0000000000000000000, 0.0000000000000000000, 1.000000000000000000 ) ) ;
#130 = DATE_TIME_ROLE ( 'creation_date' ) ;
#131 = APPROVAL_ROLE ( '' ) ;
#132 = PERSON_AND_ORGANIZATION_ROLE ( 'creator' ) ;
#133 = PERSON_AND_ORGANIZATION_ROLE ( 'design_supplier' ) ;
#134 = CARTESIAN_POINT ( 'NONE',  ( 2.437047130303233000E-017, 0.03937007874015748000, 0.1990000000000000100 ) ) ;
#135 = DIRECTION ( 'NONE',  ( -0.0000000000000000000, -1.000000000000000000, -0.0000000000000000000 ) ) ;
#136 = SECURITY_CLASSIFICATION_LEVEL ( 'unclassified' ) ;
#137 = DATE_TIME_ROLE ( 'classification_date' ) ;
#138 = PERSON_AND_ORGANIZATION_ROLE ( 'classification_officer' ) ;
#139 = DIRECTION ( 'NONE',  ( 0.0000000000000000000, -1.000000000000000000, 0.0000000000000000000 ) ) ;
#140 = CARTESIAN_POINT ( 'NONE',  ( 0.0000000000000000000, 0.03346456692913372200, 0.0000000000000000000 ) ) ;
#141 = DIRECTION ( 'NONE',  ( 0.0000000000000000000, 0.0000000000000000000, 1.000000000000000000 ) ) ;
#142 = DIRECTION ( 'NONE',  ( 0.0000000000000000000, 0.0000000000000000000, 1.000000000000000000 ) ) ;
#143 = DIRECTION ( 'NONE',  ( -0.0000000000000000000, -1.000000000000000000, -0.0000000000000000000 ) ) ;
#144 = CARTESIAN_POINT ( 'NONE',  ( 0.0000000000000000000, 0.0000000000000000000, 0.0000000000000000000 ) ) ;
#145 = CARTESIAN_POINT ( 'NONE',  ( 2.437047130303233000E-017, 0.005905511811023586400, -0.1990000000000000100 ) ) ;
#146 = APPROVAL_STATUS ( 'not_yet_approved' ) ;
#147 = CARTESIAN_POINT ( 'NONE',  ( 0.0000000000000000000, 0.03937007874015748000, 0.0000000000000000000 ) ) ;
#148 = CARTESIAN_POINT ( 'NONE',  ( 2.364725468936263400E-017, 0.03937007874015748000, 0.1930944881889764000 ) ) ;
#149 = DIRECTION ( 'NONE',  ( 0.0000000000000000000, 0.0000000000000000000, 1.000000000000000000 ) ) ;
#150 = DIRECTION ( 'NONE',  ( 0.0000000000000000000, -1.000000000000000000, 0.0000000000000000000 ) ) ;
#151 = PLANE ( 'NONE',  #25 ) ;
#152 = DIRECTION ( 'NONE',  ( 0.0000000000000000000, -1.000000000000000000, 0.0000000000000000000 ) ) ;
#153 = DIRECTION ( 'NONE',  ( 0.0000000000000000000, 0.0000000000000000000, 1.000000000000000000 ) ) ;
#154 = CARTESIAN_POINT ( 'NONE',  ( 0.0000000000000000000, 0.03937007874015748000, 0.0000000000000000000 ) ) ;
#155 = DIRECTION ( 'NONE',  ( 0.0000000000000000000, 0.0000000000000000000, -1.000000000000000000 ) ) ;
#156 = DIRECTION ( 'NONE',  ( -0.0000000000000000000, -1.000000000000000000, -0.0000000000000000000 ) ) ;
#157 = CARTESIAN_POINT ( 'NONE',  ( 0.0000000000000000000, 0.005905511811023586400, 0.0000000000000000000 ) ) ;
#158 = DIRECTION ( 'NONE',  ( 0.0000000000000000000, 0.0000000000000000000, 1.000000000000000000 ) ) ;
#159 = CARTESIAN_POINT ( 'NONE',  ( 0.0000000000000000000, 0.03937007874015748000, 0.0000000000000000000 ) ) ;
#160 = DIRECTION ( 'NONE',  ( 0.0000000000000000000, 1.000000000000000000, 0.0000000000000000000 ) ) ;
#161 = DIRECTION ( 'NONE',  ( -0.0000000000000000000, 1.000000000000000000, -0.0000000000000000000 ) ) ;
#162 = CARTESIAN_POINT ( 'NONE',  ( 0.0000000000000000000, 0.03937007874015748000, 0.0000000000000000000 ) ) ;
#163 = DIRECTION ( 'NONE',  ( 0.0000000000000000000, -1.000000000000000000, 0.0000000000000000000 ) ) ;
#164 = CARTESIAN_POINT ( 'NONE',  ( 0.0000000000000000000, 0.03937007874015748000, -0.1990000000000000100 ) ) ;
#165 = DIRECTION ( 'NONE',  ( -0.0000000000000000000, -1.000000000000000000, -0.0000000000000000000 ) ) ;
#166 = CARTESIAN_POINT ( 'NONE',  ( 0.0000000000000000000, 0.005905511811023586400, 0.1990000000000000100 ) ) ;
#167 = CARTESIAN_POINT ( 'NONE',  ( 0.0000000000000000000, 0.0000000000000000000, 0.0000000000000000000 ) ) ;
#168 = VERTEX_POINT ( 'NONE', #89 ) ;
#169 = VECTOR ( 'NONE', #118, 39.37007874015748900 ) ;
#170 = CLOSED_SHELL ( 'NONE', ( #52, #54, #53, #57, #49, #51, #50, #56 ) ) ;
#171 = PERSON_AND_ORGANIZATION ( #63, #188 ) ;
#172 = ORIENTED_EDGE ( 'NONE', *, *, #20, .T. ) ;
#173 = DATE_AND_TIME ( #180, #179 ) ;
#174 = VECTOR ( 'NONE', #135, 39.37007874015748100 ) ;
#175 = CIRCLE ( 'NONE', #31, 0.1930944881889764000 ) ;
#176 = ORIENTED_EDGE ( 'NONE', *, *, #40, .T. ) ;
#177 = FACE_OUTER_BOUND ( 'NONE', #258, .T. ) ;
#178 = APPROVAL_PERSON_ORGANIZATION ( #197, #9, #101 ) ;
#179 = LOCAL_TIME ( 15, 23, 37.00000000000000000, #272 ) ;
#180 = CALENDAR_DATE ( 2010, 14, 6 ) ;
#181 = SHAPE_DEFINITION_REPRESENTATION ( #62, #60 ) ;
#182 = DATE_AND_TIME ( #215, #219 ) ;
#183 = ORIENTED_EDGE ( 'NONE', *, *, #45, .T. ) ;
#184 = ORIENTED_EDGE ( 'NONE', *, *, #16, .T. ) ;
#185 = COORDINATED_UNIVERSAL_TIME_OFFSET ( 6, 0, .BEHIND. ) ;
#186 = LOCAL_TIME ( 15, 23, 37.00000000000000000, #201 ) ;
#187 = LINE ( 'NONE', #166, #205 ) ;
#188 = ORGANIZATION ( 'UNSPECIFIED', 'UNSPECIFIED', '' ) ;
#189 = CONICAL_SURFACE ( 'NONE', #11, 0.1990000000000000100, 0.7853981633974482800 ) ;
#190 = CONICAL_SURFACE ( 'NONE', #5, 0.1990000000000000100, 0.7853981633974482800 ) ;
#191 = COORDINATED_UNIVERSAL_TIME_OFFSET ( 6, 0, .BEHIND. ) ;
#192 = CYLINDRICAL_SURFACE ( 'NONE', #13, 0.1990000000000000100 ) ;
#193 = ORIENTED_EDGE ( 'NONE', *, *, #18, .F. ) ;
#194 = EDGE_LOOP ( 'NONE', ( #236, #257, #276, #262 ) ) ;
#195 = CIRCLE ( 'NONE', #34, 0.1990000000000000100 ) ;
#196 = ORIENTED_EDGE ( 'NONE', *, *, #40, .F. ) ;
#197 = PERSON_AND_ORGANIZATION ( #63, #188 ) ;
#198 = ORIENTED_EDGE ( 'NONE', *, *, #36, .T. ) ;
#199 = LINE ( 'NONE', #164, #252 ) ;
#200 = LOCAL_TIME ( 15, 23, 37.00000000000000000, #185 ) ;
#201 = COORDINATED_UNIVERSAL_TIME_OFFSET ( 6, 0, .BEHIND. ) ;
#202 = PERSON_AND_ORGANIZATION ( #63, #188 ) ;
#203 =( GEOMETRIC_REPRESENTATION_CONTEXT ( 3 ) GLOBAL_UNCERTAINTY_ASSIGNED_CONTEXT ( ( #59 ) ) GLOBAL_UNIT_ASSIGNED_CONTEXT ( ( #91, #93, #94 ) ) REPRESENTATION_CONTEXT ( 'NONE', 'WORKASPACE' ) );
#204 = DATE_AND_TIME ( #207, #186 ) ;
#205 = VECTOR ( 'NONE', #109, 39.37007874015748900 ) ;
#206 = CIRCLE ( 'NONE', #8, 0.1990000000000000100 ) ;
#207 = CALENDAR_DATE ( 2010, 14, 6 ) ;
#208 = APPROVAL_DATE_TIME ( #204, #22 ) ;
#209 = CYLINDRICAL_SURFACE ( 'NONE', #33, 0.1990000000000000100 ) ;
#210 = PERSON_AND_ORGANIZATION ( #63, #188 ) ;
#211 = COORDINATED_UNIVERSAL_TIME_OFFSET ( 6, 0, .BEHIND. ) ;
#212 = APPROVAL_PERSON_ORGANIZATION ( #171, #7, #131 ) ;
#213 = DATE_AND_TIME ( #221, #273 ) ;
#214 = ORIENTED_EDGE ( 'NONE', *, *, #28, .F. ) ;
#215 = CALENDAR_DATE ( 2010, 14, 6 ) ;
#216 = APPROVAL_PERSON_ORGANIZATION ( #202, #22, #127 ) ;
#217 = CONICAL_SURFACE ( 'NONE', #30, 0.1930944881889764000, 0.7853981633974367300 ) ;
#218 = ORIENTED_EDGE ( 'NONE', *, *, #17, .F. ) ;
#219 = LOCAL_TIME ( 15, 23, 37.00000000000000000, #211 ) ;
#220 = PERSON_AND_ORGANIZATION ( #63, #188 ) ;
#221 = CALENDAR_DATE ( 2010, 14, 6 ) ;
#222 = ORIENTED_EDGE ( 'NONE', *, *, #26, .F. ) ;
#223 = VECTOR ( 'NONE', #95, 39.37007874015748900 ) ;
#224 = CIRCLE ( 'NONE', #29, 0.1930944881889764000 ) ;
#225 = CIRCLE ( 'NONE', #1, 0.1930944881889764300 ) ;
#226 = LENGTH_MEASURE_WITH_UNIT ( LENGTH_MEASURE( 0.02539999999999999900 ), #90 );
#227 = CIRCLE ( 'NONE', #37, 0.1990000000000000100 ) ;
#228 = PERSON_AND_ORGANIZATION ( #63, #188 ) ;
#229 = CIRCLE ( 'NONE', #39, 0.1930944881889764300 ) ;
#230 = APPROVAL_DATE_TIME ( #233, #9 ) ;
#231 = ORIENTED_EDGE ( 'NONE', *, *, #42, .T. ) ;
#232 = ORIENTED_EDGE ( 'NONE', *, *, #28, .T. ) ;
#233 = DATE_AND_TIME ( #267, #200 ) ;
#234 = ORIENTED_EDGE ( 'NONE', *, *, #18, .T. ) ;
#235 = ORIENTED_EDGE ( 'NONE', *, *, #26, .T. ) ;
#236 = ORIENTED_EDGE ( 'NONE', *, *, #42, .F. ) ;
#237 = FACE_OUTER_BOUND ( 'NONE', #239, .T. ) ;
#238 = ORIENTED_EDGE ( 'NONE', *, *, #45, .F. ) ;
#239 = EDGE_LOOP ( 'NONE', ( #234, #232 ) ) ;
#240 = ORIENTED_EDGE ( 'NONE', *, *, #3, .T. ) ;
#241 = ORIENTED_EDGE ( 'NONE', *, *, #38, .F. ) ;
#242 = ORIENTED_EDGE ( 'NONE', *, *, #15, .F. ) ;
#243 = ORIENTED_EDGE ( 'NONE', *, *, #19, .F. ) ;
#244 = ORIENTED_EDGE ( 'NONE', *, *, #15, .T. ) ;
#245 = EDGE_LOOP ( 'NONE', ( #243, #238, #172, #241 ) ) ;
#246 = APPROVAL_DATE_TIME ( #173, #7 ) ;
#247 = FACE_OUTER_BOUND ( 'NONE', #256, .T. ) ;
#248 = CIRCLE ( 'NONE', #24, 0.1990000000000000100 ) ;
#249 = VECTOR ( 'NONE', #79, 39.37007874015748900 ) ;
#250 = FACE_OUTER_BOUND ( 'NONE', #194, .T. ) ;
#251 = LINE ( 'NONE', #145, #223 ) ;
#252 = VECTOR ( 'NONE', #165, 39.37007874015748100 ) ;
#253 = ORIENTED_EDGE ( 'NONE', *, *, #17, .T. ) ;
#254 = LINE ( 'NONE', #134, #174 ) ;
#255 = EDGE_LOOP ( 'NONE', ( #184, #244, #235, #277 ) ) ;
#256 = EDGE_LOOP ( 'NONE', ( #183, #231 ) ) ;
#257 = ORIENTED_EDGE ( 'NONE', *, *, #19, .T. ) ;
#258 = EDGE_LOOP ( 'NONE', ( #214, #176, #222, #218 ) ) ;
#259 = LINE ( 'NONE', #69, #249 ) ;
#260 = EDGE_LOOP ( 'NONE', ( #196, #193, #253, #264 ) ) ;
#261 = ORIENTED_EDGE ( 'NONE', *, *, #38, .T. ) ;
#262 = ORIENTED_EDGE ( 'NONE', *, *, #20, .F. ) ;
#263 = EDGE_LOOP ( 'NONE', ( #242, #261, #198, #240 ) ) ;
#264 = ORIENTED_EDGE ( 'NONE', *, *, #3, .F. ) ;
#265 = FACE_OUTER_BOUND ( 'NONE', #260, .T. ) ;
#266 = LINE ( 'NONE', #148, #169 ) ;
#267 = CALENDAR_DATE ( 2010, 14, 6 ) ;
#268 = CONICAL_SURFACE ( 'NONE', #43, 0.1930944881889764000, 0.7853981633974367300 ) ;
#269 = FACE_OUTER_BOUND ( 'NONE', #263, .T. ) ;
#270 = FACE_OUTER_BOUND ( 'NONE', #245, .T. ) ;
#271 = PERSON_AND_ORGANIZATION ( #63, #188 ) ;
#272 = COORDINATED_UNIVERSAL_TIME_OFFSET ( 6, 0, .BEHIND. ) ;
#273 = LOCAL_TIME ( 15, 23, 37.00000000000000000, #191 ) ;
#274 = PERSON_AND_ORGANIZATION ( #63, #188 ) ;
#275 = SECURITY_CLASSIFICATION ( '', '', #136 ) ;
#276 = ORIENTED_EDGE ( 'NONE', *, *, #16, .F. ) ;
#277 = ORIENTED_EDGE ( 'NONE', *, *, #36, .F. ) ;
#278 = FACE_OUTER_BOUND ( 'NONE', #255, .T. ) ;
ENDSEC;
END-ISO-10303-21;
