ISO-10303-21;
HEADER;
FILE_DESCRIPTION (( 'STEP AP203' ),
    '1' );
FILE_NAME ('D020137-v1_aLIGO_SUS_HSTS_Pitch Insert for T-Section.STEP',
    '2010-07-06T17:45:37',
    ( 'Dwayne Giardina' ),
    ( 'CA Institute of Technology' ),
    'SwSTEP 2.0',
    'SolidWorks 2010',
    '' );
FILE_SCHEMA (( 'CONFIG_CONTROL_DESIGN' ));
ENDSEC;

DATA;
#1 = ADVANCED_FACE ( 'NONE', ( #171 ), #248, .F. ) ;
#2 = ADVANCED_FACE ( 'NONE', ( #201 ), #157, .T. ) ;
#3 = ADVANCED_FACE ( 'NONE', ( #174, #242 ), #73, .T. ) ;
#4 = ADVANCED_FACE ( 'NONE', ( #220 ), #252, .T. ) ;
#5 = DIMENSIONAL_EXPONENTS ( 1.000000000000000000, 0.0000000000000000000, 0.0000000000000000000, 0.0000000000000000000, 0.0000000000000000000, 0.0000000000000000000, 0.0000000000000000000 ) ;
#6 = ADVANCED_FACE ( 'NONE', ( #204 ), #181, .F. ) ;
#7 = ADVANCED_FACE ( 'NONE', ( #245, #175 ), #34, .F. ) ;
#8 = PRODUCT_DEFINITION_SHAPE ( 'NONE', 'NONE',  #117 ) ;
#9 = DESIGN_CONTEXT ( 'detailed design', #40, 'design' ) ;
#10 = UNCERTAINTY_MEASURE_WITH_UNIT (LENGTH_MEASURE( 1.000000000000000100E-005 ), #21, 'distance_accuracy_value', 'NONE');
#11 = MANIFOLD_SOLID_BREP ( '1/2-20 Tapped Hole1', #234 ) ;
#12 = ADVANCED_BREP_SHAPE_REPRESENTATION ( 'D020137-v1_aLIGO_SUS_HSTS_Pitch Insert for T-Section', ( #11, #137 ), #226 ) ;
#13 = PERSON ( 'UNSPECIFIED', 'UNSPECIFIED', 'UNSPECIFIED', ('UNSPECIFIED'), ('UNSPECIFIED'), ('UNSPECIFIED') ) ;
#14 = PRODUCT ( 'D020137-v1_aLIGO_SUS_HSTS_Pitch Insert for T-Section', 'D020137-v1_aLIGO_SUS_HSTS_Pitch Insert for T-Section', '', ( #62 ) ) ;
#15 = DIRECTION ( 'NONE',  ( 1.000000000000000000, 0.0000000000000000000, 0.0000000000000000000 ) ) ;
#16 = DIRECTION ( 'NONE',  ( 1.000000000000000000, 0.0000000000000000000, 0.0000000000000000000 ) ) ;
#17 = DIRECTION ( 'NONE',  ( -0.0000000000000000000, 0.0000000000000000000, 1.000000000000000000 ) ) ;
#18 = DIRECTION ( 'NONE',  ( 1.000000000000000000, 0.0000000000000000000, 0.0000000000000000000 ) ) ;
#19 =( LENGTH_UNIT ( ) NAMED_UNIT ( * ) SI_UNIT ( $, .METRE. ) );
#20 = DIRECTION ( 'NONE',  ( 1.000000000000000000, 0.0000000000000000000, 0.0000000000000000000 ) ) ;
#21 =( CONVERSION_BASED_UNIT ( 'INCH', #195 ) LENGTH_UNIT ( ) NAMED_UNIT ( #5 ) );
#22 = APPROVAL_STATUS ( 'not_yet_approved' ) ;
#23 = DIRECTION ( 'NONE',  ( 0.0000000000000000000, 0.0000000000000000000, 1.000000000000000000 ) ) ;
#24 = APPLICATION_PROTOCOL_DEFINITION ( 'international standard', 'config_control_design', 1994, #32 ) ;
#25 = APPROVAL_ROLE ( '' ) ;
#26 = PERSON_AND_ORGANIZATION_ROLE ( 'creator' ) ;
#27 =( NAMED_UNIT ( * ) SI_UNIT ( $, .STERADIAN. ) SOLID_ANGLE_UNIT ( ) );
#28 = CARTESIAN_POINT ( 'NONE',  ( 0.0000000000000000000, 0.0000000000000000000, 0.0000000000000000000 ) ) ;
#29 = DIRECTION ( 'NONE',  ( -0.0000000000000000000, 0.0000000000000000000, 1.000000000000000000 ) ) ;
#30 = CARTESIAN_POINT ( 'NONE',  ( 1.116491127522897800E-016, -1.104467769930602700, -1.968503937007874100 ) ) ;
#31 = APPLICATION_PROTOCOL_DEFINITION ( 'international standard', 'config_control_design', 1994, #40 ) ;
#32 = APPLICATION_CONTEXT ( 'configuration controlled 3d designs of mechanical parts and assemblies' ) ;
#33 = DIRECTION ( 'NONE',  ( -0.0000000000000000000, -0.0000000000000000000, 1.000000000000000000 ) ) ;
#34 = PLANE ( 'NONE',  #145 ) ;
#35 = DIRECTION ( 'NONE',  ( 1.000000000000000000, 0.0000000000000000000, 0.0000000000000000000 ) ) ;
#36 = CARTESIAN_POINT ( 'NONE',  ( 0.4995000000000000000, 0.0000000000000000000, -1.968503937007874100 ) ) ;
#37 = CARTESIAN_POINT ( 'NONE',  ( -0.2265499999999997800, 2.774437323468325800E-017, -1.910449006669871200E-018 ) ) ;
#38 = CARTESIAN_POINT ( 'NONE',  ( -0.4995000000000000000, 6.117110761741029900E-017, 0.0000000000000000000 ) ) ;
#39 = CARTESIAN_POINT ( 'NONE',  ( -0.2265499999999995300, 2.774437323468323600E-017, -1.968503937007874100 ) ) ;
#40 = APPLICATION_CONTEXT ( 'configuration controlled 3d designs of mechanical parts and assemblies' ) ;
#41 = DIRECTION ( 'NONE',  ( -0.0000000000000000000, -0.0000000000000000000, 1.000000000000000000 ) ) ;
#42 = CARTESIAN_POINT ( 'NONE',  ( 0.0000000000000000000, 0.0000000000000000000, 0.0000000000000000000 ) ) ;
#43 = CARTESIAN_POINT ( 'NONE',  ( 0.2265499999999995300, 0.0000000000000000000, -1.968503937007874100 ) ) ;
#44 = CARTESIAN_POINT ( 'NONE',  ( 0.2265499999999997800, 0.0000000000000000000, -1.910449006669871200E-018 ) ) ;
#45 = PERSON_AND_ORGANIZATION_ROLE ( 'design_owner' ) ;
#46 = CARTESIAN_POINT ( 'NONE',  ( 0.0000000000000000000, 0.0000000000000000000, -1.968503937007874100 ) ) ;
#47 = DIRECTION ( 'NONE',  ( -0.0000000000000000000, 0.0000000000000000000, 1.000000000000000000 ) ) ;
#48 = CARTESIAN_POINT ( 'NONE',  ( 0.4995000000000000000, 0.0000000000000000000, -1.968503937007874100 ) ) ;
#49 = DIRECTION ( 'NONE',  ( 1.000000000000000000, 0.0000000000000000000, 0.0000000000000000000 ) ) ;
#50 = DIRECTION ( 'NONE',  ( -0.0000000000000000000, -0.0000000000000000000, 1.000000000000000000 ) ) ;
#51 = CARTESIAN_POINT ( 'NONE',  ( 0.0000000000000000000, 0.0000000000000000000, -1.910449006669871200E-018 ) ) ;
#52 = CARTESIAN_POINT ( 'NONE',  ( -0.4995000000000000000, 6.117110761741029900E-017, -1.968503937007874100 ) ) ;
#53 = DIRECTION ( 'NONE',  ( 0.0000000000000000000, 0.0000000000000000000, 1.000000000000000000 ) ) ;
#54 = CARTESIAN_POINT ( 'NONE',  ( 0.0000000000000000000, 0.0000000000000000000, -1.968503937007874100 ) ) ;
#55 = DIRECTION ( 'NONE',  ( -0.0000000000000000000, 0.0000000000000000000, 1.000000000000000000 ) ) ;
#56 = DIRECTION ( 'NONE',  ( 1.000000000000000000, 0.0000000000000000000, 0.0000000000000000000 ) ) ;
#57 = CARTESIAN_POINT ( 'NONE',  ( -0.2265499999999996700, 2.774437323468324500E-017, 0.0000000000000000000 ) ) ;
#58 = DIRECTION ( 'NONE',  ( -0.0000000000000000000, 0.0000000000000000000, 1.000000000000000000 ) ) ;
#59 = DIRECTION ( 'NONE',  ( 1.000000000000000000, 0.0000000000000000000, 0.0000000000000000000 ) ) ;
#60 = CARTESIAN_POINT ( 'NONE',  ( 0.0000000000000000000, 0.0000000000000000000, -1.968503937007874100 ) ) ;
#61 = CARTESIAN_POINT ( 'NONE',  ( 0.0000000000000000000, 0.0000000000000000000, 0.0000000000000000000 ) ) ;
#62 = MECHANICAL_CONTEXT ( 'NONE', #32, 'mechanical' ) ;
#63 = DIRECTION ( 'NONE',  ( 1.000000000000000000, 0.0000000000000000000, 0.0000000000000000000 ) ) ;
#64 = CARTESIAN_POINT ( 'NONE',  ( 0.0000000000000000000, 0.0000000000000000000, -1.910449006669871200E-018 ) ) ;
#65 = CARTESIAN_POINT ( 'NONE',  ( 0.0000000000000000000, 0.0000000000000000000, -1.968503937007874100 ) ) ;
#66 = DIRECTION ( 'NONE',  ( -0.0000000000000000000, -0.0000000000000000000, 1.000000000000000000 ) ) ;
#67 = DIRECTION ( 'NONE',  ( -0.0000000000000000000, 0.0000000000000000000, 1.000000000000000000 ) ) ;
#68 = DIRECTION ( 'NONE',  ( 1.000000000000000000, 0.0000000000000000000, 0.0000000000000000000 ) ) ;
#69 = DIRECTION ( 'NONE',  ( -0.0000000000000000000, -0.0000000000000000000, 1.000000000000000000 ) ) ;
#70 = DIRECTION ( 'NONE',  ( 1.000000000000000000, 0.0000000000000000000, 0.0000000000000000000 ) ) ;
#71 = CARTESIAN_POINT ( 'NONE',  ( -0.4995000000000000000, 6.117110761741029900E-017, -1.968503937007874100 ) ) ;
#72 = DIRECTION ( 'NONE',  ( 0.0000000000000000000, 0.0000000000000000000, 1.000000000000000000 ) ) ;
#73 = PLANE ( 'NONE',  #124 ) ;
#74 = DIRECTION ( 'NONE',  ( 1.000000000000000000, 0.0000000000000000000, 0.0000000000000000000 ) ) ;
#75 = DIRECTION ( 'NONE',  ( -0.0000000000000000000, -0.0000000000000000000, 1.000000000000000000 ) ) ;
#76 = DIRECTION ( 'NONE',  ( -0.0000000000000000000, -0.0000000000000000000, 1.000000000000000000 ) ) ;
#77 = PERSON_AND_ORGANIZATION_ROLE ( 'design_supplier' ) ;
#78 = DIRECTION ( 'NONE',  ( 1.000000000000000000, 0.0000000000000000000, 0.0000000000000000000 ) ) ;
#79 = DIRECTION ( 'NONE',  ( 0.0000000000000000000, 0.0000000000000000000, 1.000000000000000000 ) ) ;
#80 = CARTESIAN_POINT ( 'NONE',  ( 0.0000000000000000000, 0.0000000000000000000, 0.0000000000000000000 ) ) ;
#81 = DIRECTION ( 'NONE',  ( 0.0000000000000000000, 0.0000000000000000000, 1.000000000000000000 ) ) ;
#82 = VERTEX_POINT ( 'NONE', #95 ) ;
#83 = VERTEX_POINT ( 'NONE', #71 ) ;
#84 = SECURITY_CLASSIFICATION_LEVEL ( 'unclassified' ) ;
#85 = DATE_TIME_ROLE ( 'classification_date' ) ;
#86 = DATE_TIME_ROLE ( 'creation_date' ) ;
#87 = APPROVAL_ROLE ( '' ) ;
#88 = PERSON_AND_ORGANIZATION_ROLE ( 'classification_officer' ) ;
#89 = APPROVAL_STATUS ( 'not_yet_approved' ) ;
#90 = PERSON_AND_ORGANIZATION_ROLE ( 'creator' ) ;
#91 = APPROVAL_STATUS ( 'not_yet_approved' ) ;
#92 = APPROVAL_ROLE ( '' ) ;
#93 =( NAMED_UNIT ( * ) PLANE_ANGLE_UNIT ( ) SI_UNIT ( $, .RADIAN. ) );
#94 = DIRECTION ( 'NONE',  ( 1.000000000000000000, 0.0000000000000000000, 0.0000000000000000000 ) ) ;
#95 = CARTESIAN_POINT ( 'NONE',  ( 0.4995000000000000000, 0.0000000000000000000, 0.0000000000000000000 ) ) ;
#96 = DIRECTION ( 'NONE',  ( 1.000000000000000000, 0.0000000000000000000, 0.0000000000000000000 ) ) ;
#97 = DIRECTION ( 'NONE',  ( -0.0000000000000000000, -0.0000000000000000000, 1.000000000000000000 ) ) ;
#98 = VERTEX_POINT ( 'NONE', #37 ) ;
#99 = VERTEX_POINT ( 'NONE', #38 ) ;
#100 = CARTESIAN_POINT ( 'NONE',  ( 0.0000000000000000000, 0.0000000000000000000, -1.968503937007874100 ) ) ;
#101 = VERTEX_POINT ( 'NONE', #39 ) ;
#102 = VERTEX_POINT ( 'NONE', #43 ) ;
#103 = CARTESIAN_POINT ( 'NONE',  ( 0.0000000000000000000, 0.0000000000000000000, -1.968503937007874100 ) ) ;
#104 = VERTEX_POINT ( 'NONE', #36 ) ;
#105 = VERTEX_POINT ( 'NONE', #44 ) ;
#106 = CARTESIAN_POINT ( 'NONE',  ( 0.0000000000000000000, 0.0000000000000000000, 0.0000000000000000000 ) ) ;
#107 = CARTESIAN_POINT ( 'NONE',  ( 1.116491127522897800E-016, -1.104467769930602700, 0.0000000000000000000 ) ) ;
#108 = CARTESIAN_POINT ( 'NONE',  ( 0.2265499999999996700, 0.0000000000000000000, 0.0000000000000000000 ) ) ;
#109 = CC_DESIGN_PERSON_AND_ORGANIZATION_ASSIGNMENT ( #205, #45, ( #14 ) ) ;
#110 = PRODUCT_RELATED_PRODUCT_CATEGORY ( 'detail', '', ( #14 ) ) ;
#111 = EDGE_CURVE ( 'NONE', #104, #83, #179, .T. ) ;
#112 = CC_DESIGN_APPROVAL ( #147, ( #119 ) ) ;
#113 = CC_DESIGN_PERSON_AND_ORGANIZATION_ASSIGNMENT ( #185, #26, ( #117 ) ) ;
#114 = APPROVAL ( #91, 'UNSPECIFIED' ) ;
#115 = CC_DESIGN_PERSON_AND_ORGANIZATION_ASSIGNMENT ( #216, #88, ( #119 ) ) ;
#116 = EDGE_CURVE ( 'NONE', #102, #105, #184, .T. ) ;
#117 = PRODUCT_DEFINITION ( 'UNKNOWN', '', #144, #9 ) ;
#118 = EDGE_CURVE ( 'NONE', #104, #82, #230, .T. ) ;
#119 = SECURITY_CLASSIFICATION ( '', '', #84 ) ;
#120 = CC_DESIGN_PERSON_AND_ORGANIZATION_ASSIGNMENT ( #167, #77, ( #144 ) ) ;
#121 = EDGE_CURVE ( 'NONE', #83, #104, #231, .T. ) ;
#122 = AXIS2_PLACEMENT_3D ( 'NONE', #60, #50, #59 ) ;
#123 = AXIS2_PLACEMENT_3D ( 'NONE', #103, #79, #15 ) ;
#124 = AXIS2_PLACEMENT_3D ( 'NONE', #107, #17, #18 ) ;
#125 = EDGE_CURVE ( 'NONE', #82, #99, #182, .T. ) ;
#126 = AXIS2_PLACEMENT_3D ( 'NONE', #54, #55, #56 ) ;
#127 = CC_DESIGN_DATE_AND_TIME_ASSIGNMENT ( #163, #85, ( #119 ) ) ;
#128 = CC_DESIGN_APPROVAL ( #151, ( #117 ) ) ;
#129 = AXIS2_PLACEMENT_3D ( 'NONE', #51, #69, #78 ) ;
#130 = AXIS2_PLACEMENT_3D ( 'NONE', #65, #76, #70 ) ;
#131 = AXIS2_PLACEMENT_3D ( 'NONE', #80, #67, #94 ) ;
#132 = AXIS2_PLACEMENT_3D ( 'NONE', #100, #81, #16 ) ;
#133 = AXIS2_PLACEMENT_3D ( 'NONE', #42, #58, #63 ) ;
#134 = AXIS2_PLACEMENT_3D ( 'NONE', #46, #47, #49 ) ;
#135 = CC_DESIGN_APPROVAL ( #114, ( #144 ) ) ;
#136 = CC_DESIGN_PERSON_AND_ORGANIZATION_ASSIGNMENT ( #168, #90, ( #144 ) ) ;
#137 = AXIS2_PLACEMENT_3D ( 'NONE', #61, #23, #20 ) ;
#138 = EDGE_CURVE ( 'NONE', #101, #102, #218, .T. ) ;
#139 = EDGE_CURVE ( 'NONE', #101, #98, #217, .T. ) ;
#140 = AXIS2_PLACEMENT_3D ( 'NONE', #64, #66, #68 ) ;
#141 = CC_DESIGN_SECURITY_CLASSIFICATION ( #119, ( #144 ) ) ;
#142 = EDGE_CURVE ( 'NONE', #83, #99, #159, .T. ) ;
#143 = EDGE_CURVE ( 'NONE', #105, #98, #177, .T. ) ;
#144 = PRODUCT_DEFINITION_FORMATION_WITH_SPECIFIED_SOURCE ( 'ANY', '', #14, .NOT_KNOWN. ) ;
#145 = AXIS2_PLACEMENT_3D ( 'NONE', #30, #29, #35 ) ;
#146 = EDGE_CURVE ( 'NONE', #98, #105, #166, .T. ) ;
#147 = APPROVAL ( #89, 'UNSPECIFIED' ) ;
#148 = CC_DESIGN_DATE_AND_TIME_ASSIGNMENT ( #212, #86, ( #117 ) ) ;
#149 = EDGE_CURVE ( 'NONE', #102, #101, #240, .T. ) ;
#150 = EDGE_CURVE ( 'NONE', #99, #82, #178, .T. ) ;
#151 = APPROVAL ( #22, 'UNSPECIFIED' ) ;
#152 = AXIS2_PLACEMENT_3D ( 'NONE', #28, #33, #74 ) ;
#153 = AXIS2_PLACEMENT_3D ( 'NONE', #106, #97, #96 ) ;
#154 = ORIENTED_EDGE ( 'NONE', *, *, #118, .F. ) ;
#155 = EDGE_LOOP ( 'NONE', ( #193, #176 ) ) ;
#156 = ORIENTED_EDGE ( 'NONE', *, *, #146, .T. ) ;
#157 = CYLINDRICAL_SURFACE ( 'NONE', #123, 0.4995000000000000000 ) ;
#158 = ORIENTED_EDGE ( 'NONE', *, *, #142, .T. ) ;
#159 = LINE ( 'NONE', #52, #225 ) ;
#160 = APPROVAL_PERSON_ORGANIZATION ( #229, #151, #25 ) ;
#161 = EDGE_LOOP ( 'NONE', ( #187, #232, #196, #197 ) ) ;
#162 = ORIENTED_EDGE ( 'NONE', *, *, #111, .T. ) ;
#163 = DATE_AND_TIME ( #208, #192 ) ;
#164 = ORIENTED_EDGE ( 'NONE', *, *, #139, .T. ) ;
#165 = COORDINATED_UNIVERSAL_TIME_OFFSET ( 6, 0, .BEHIND. ) ;
#166 = CIRCLE ( 'NONE', #129, 0.2265499999999997800 ) ;
#167 = PERSON_AND_ORGANIZATION ( #13, #219 ) ;
#168 = PERSON_AND_ORGANIZATION ( #13, #219 ) ;
#169 = EDGE_LOOP ( 'NONE', ( #199, #164, #156, #237 ) ) ;
#170 = EDGE_LOOP ( 'NONE', ( #203, #188 ) ) ;
#171 = FACE_OUTER_BOUND ( 'NONE', #169, .T. ) ;
#172 = ORIENTED_EDGE ( 'NONE', *, *, #125, .F. ) ;
#173 = CALENDAR_DATE ( 2010, 6, 7 ) ;
#174 = FACE_BOUND ( 'NONE', #170, .T. ) ;
#175 = FACE_OUTER_BOUND ( 'NONE', #155, .T. ) ;
#176 = ORIENTED_EDGE ( 'NONE', *, *, #121, .F. ) ;
#177 = CIRCLE ( 'NONE', #140, 0.2265499999999997800 ) ;
#178 = CIRCLE ( 'NONE', #131, 0.4995000000000000000 ) ;
#179 = CIRCLE ( 'NONE', #134, 0.4995000000000000000 ) ;
#180 = EDGE_LOOP ( 'NONE', ( #189, #233, #241, #246 ) ) ;
#181 = CYLINDRICAL_SURFACE ( 'NONE', #152, 0.2265499999999996700 ) ;
#182 = CIRCLE ( 'NONE', #133, 0.4995000000000000000 ) ;
#183 = ORIENTED_EDGE ( 'NONE', *, *, #149, .T. ) ;
#184 = LINE ( 'NONE', #108, #194 ) ;
#185 = PERSON_AND_ORGANIZATION ( #13, #219 ) ;
#186 = EDGE_LOOP ( 'NONE', ( #202, #235 ) ) ;
#187 = ORIENTED_EDGE ( 'NONE', *, *, #142, .F. ) ;
#188 = ORIENTED_EDGE ( 'NONE', *, *, #146, .F. ) ;
#189 = ORIENTED_EDGE ( 'NONE', *, *, #139, .F. ) ;
#190 = APPROVAL_DATE_TIME ( #210, #114 ) ;
#191 = VECTOR ( 'NONE', #53, 39.37007874015748100 ) ;
#192 = LOCAL_TIME ( 12, 45, 37.00000000000000000, #213 ) ;
#193 = ORIENTED_EDGE ( 'NONE', *, *, #111, .F. ) ;
#194 = VECTOR ( 'NONE', #41, 39.37007874015748100 ) ;
#195 = LENGTH_MEASURE_WITH_UNIT ( LENGTH_MEASURE( 0.02539999999999999900 ), #19 );
#196 = ORIENTED_EDGE ( 'NONE', *, *, #118, .T. ) ;
#197 = ORIENTED_EDGE ( 'NONE', *, *, #150, .F. ) ;
#198 = PERSON_AND_ORGANIZATION ( #13, #219 ) ;
#199 = ORIENTED_EDGE ( 'NONE', *, *, #138, .F. ) ;
#200 = CALENDAR_DATE ( 2010, 6, 7 ) ;
#201 = FACE_OUTER_BOUND ( 'NONE', #207, .T. ) ;
#202 = ORIENTED_EDGE ( 'NONE', *, *, #125, .T. ) ;
#203 = ORIENTED_EDGE ( 'NONE', *, *, #143, .F. ) ;
#204 = FACE_OUTER_BOUND ( 'NONE', #180, .T. ) ;
#205 = PERSON_AND_ORGANIZATION ( #13, #219 ) ;
#206 = APPROVAL_PERSON_ORGANIZATION ( #198, #114, #87 ) ;
#207 = EDGE_LOOP ( 'NONE', ( #162, #158, #172, #154 ) ) ;
#208 = CALENDAR_DATE ( 2010, 6, 7 ) ;
#209 = COORDINATED_UNIVERSAL_TIME_OFFSET ( 6, 0, .BEHIND. ) ;
#210 = DATE_AND_TIME ( #173, #238 ) ;
#211 = VECTOR ( 'NONE', #75, 39.37007874015748100 ) ;
#212 = DATE_AND_TIME ( #200, #228 ) ;
#213 = COORDINATED_UNIVERSAL_TIME_OFFSET ( 6, 0, .BEHIND. ) ;
#214 = CALENDAR_DATE ( 2010, 6, 7 ) ;
#215 = LOCAL_TIME ( 12, 45, 37.00000000000000000, #209 ) ;
#216 = PERSON_AND_ORGANIZATION ( #13, #219 ) ;
#217 = LINE ( 'NONE', #57, #211 ) ;
#218 = CIRCLE ( 'NONE', #122, 0.2265499999999995300 ) ;
#219 = ORGANIZATION ( 'UNSPECIFIED', 'UNSPECIFIED', '' ) ;
#220 = FACE_OUTER_BOUND ( 'NONE', #161, .T. ) ;
#221 = CALENDAR_DATE ( 2010, 6, 7 ) ;
#222 = LOCAL_TIME ( 12, 45, 37.00000000000000000, #165 ) ;
#223 = COORDINATED_UNIVERSAL_TIME_OFFSET ( 6, 0, .BEHIND. ) ;
#224 = SHAPE_DEFINITION_REPRESENTATION ( #8, #12 ) ;
#225 = VECTOR ( 'NONE', #72, 39.37007874015748100 ) ;
#226 =( GEOMETRIC_REPRESENTATION_CONTEXT ( 3 ) GLOBAL_UNCERTAINTY_ASSIGNED_CONTEXT ( ( #10 ) ) GLOBAL_UNIT_ASSIGNED_CONTEXT ( ( #21, #93, #27 ) ) REPRESENTATION_CONTEXT ( 'NONE', 'WORKASPACE' ) );
#227 = DATE_AND_TIME ( #214, #222 ) ;
#228 = LOCAL_TIME ( 12, 45, 37.00000000000000000, #223 ) ;
#229 = PERSON_AND_ORGANIZATION ( #13, #219 ) ;
#230 = LINE ( 'NONE', #48, #191 ) ;
#231 = CIRCLE ( 'NONE', #126, 0.4995000000000000000 ) ;
#232 = ORIENTED_EDGE ( 'NONE', *, *, #121, .T. ) ;
#233 = ORIENTED_EDGE ( 'NONE', *, *, #149, .F. ) ;
#234 = CLOSED_SHELL ( 'NONE', ( #1, #2, #4, #7, #3, #6 ) ) ;
#235 = ORIENTED_EDGE ( 'NONE', *, *, #150, .T. ) ;
#236 = EDGE_LOOP ( 'NONE', ( #183, #244 ) ) ;
#237 = ORIENTED_EDGE ( 'NONE', *, *, #116, .F. ) ;
#238 = LOCAL_TIME ( 12, 45, 37.00000000000000000, #250 ) ;
#239 = APPROVAL_DATE_TIME ( #227, #147 ) ;
#240 = CIRCLE ( 'NONE', #130, 0.2265499999999995300 ) ;
#241 = ORIENTED_EDGE ( 'NONE', *, *, #116, .T. ) ;
#242 = FACE_OUTER_BOUND ( 'NONE', #186, .T. ) ;
#243 = DATE_AND_TIME ( #221, #215 ) ;
#244 = ORIENTED_EDGE ( 'NONE', *, *, #138, .T. ) ;
#245 = FACE_BOUND ( 'NONE', #236, .T. ) ;
#246 = ORIENTED_EDGE ( 'NONE', *, *, #143, .T. ) ;
#247 = PERSON_AND_ORGANIZATION ( #13, #219 ) ;
#248 = CYLINDRICAL_SURFACE ( 'NONE', #153, 0.2265499999999996700 ) ;
#249 = APPROVAL_PERSON_ORGANIZATION ( #247, #147, #92 ) ;
#250 = COORDINATED_UNIVERSAL_TIME_OFFSET ( 6, 0, .BEHIND. ) ;
#251 = APPROVAL_DATE_TIME ( #243, #151 ) ;
#252 = CYLINDRICAL_SURFACE ( 'NONE', #132, 0.4995000000000000000 ) ;
ENDSEC;
END-ISO-10303-21;
