ISO-10303-21;
HEADER;
FILE_DESCRIPTION (( 'STEP AP214' ),
    '1' );
FILE_NAME ('D1001018-v3.STEP',
    '2013-02-22T17:43:45',
    ( 'ligo' ),
    ( 'Microsoft' ),
    'SwSTEP 2.0',
    'SolidWorks 2013',
    '' );
FILE_SCHEMA (( 'AUTOMOTIVE_DESIGN' ));
ENDSEC;

DATA;
#1 = EDGE_CURVE ( 'NONE', #28, #91, #53, .T. ) ;
#2 = DIRECTION ( 'NONE',  ( 1.000000000000000000, 0.0000000000000000000, 0.0000000000000000000 ) ) ;
#3 = PLANE ( 'NONE',  #74 ) ;
#4 = FACE_OUTER_BOUND ( 'NONE', #99, .T. ) ;
#5 = CARTESIAN_POINT ( 'NONE',  ( -4.542879513588951900, -170.2608589538884000, 0.0000000000000000000 ) ) ;
#6 = FACE_OUTER_BOUND ( 'NONE', #58, .T. ) ;
#7 = ADVANCED_FACE ( 'NONE', ( #6 ), #106, .F. ) ;
#8 = DIRECTION ( 'NONE',  ( 0.0000000000000000000, 0.0000000000000000000, 1.000000000000000000 ) ) ;
#9 = CARTESIAN_POINT ( 'NONE',  ( -10.88362987834987700, -161.0580439593633500, 0.04800000000000000100 ) ) ;
#10 = FACE_OUTER_BOUND ( 'NONE', #119, .T. ) ;
#11 = CARTESIAN_POINT ( 'NONE',  ( -4.542879513588959900, -170.2608589538884300, 0.0000000000000000000 ) ) ;
#12 = PRODUCT_CONTEXT ( 'NONE', #89, 'mechanical' ) ;
#13 = DIRECTION ( 'NONE',  ( 1.000000000000000000, 0.0000000000000000000, -0.0000000000000000000 ) ) ;
#14 = UNCERTAINTY_MEASURE_WITH_UNIT (LENGTH_MEASURE( 1.000000000000000100E-005 ), #150, 'distance_accuracy_value', 'NONE');
#15 = SURFACE_STYLE_FILL_AREA ( #46 ) ;
#16 = COLOUR_RGB ( '',0.7921568627450980000, 0.8196078431372548800, 0.9333333333333333500 ) ;
#17 = VECTOR ( 'NONE', #81, 39.37007874015748100 ) ;
#18 = CARTESIAN_POINT ( 'NONE',  ( 1.181361670310219000E-013, -146.0603763626276600, 0.04800000000000000100 ) ) ;
#19 = CARTESIAN_POINT ( 'NONE',  ( -10.88362987834987700, -161.0580439593633500, 0.0000000000000000000 ) ) ;
#20 = ORIENTED_EDGE ( 'NONE', *, *, #147, .T. ) ;
#21 = APPLICATION_PROTOCOL_DEFINITION ( 'draft international standard', 'automotive_design', 1998, #101 ) ;
#22 = EDGE_CURVE ( 'NONE', #122, #28, #82, .T. ) ;
#23 = DIRECTION ( 'NONE',  ( 1.000000000000000000, -1.445790110412306500E-014, 0.0000000000000000000 ) ) ;
#24 = ORIENTED_EDGE ( 'NONE', *, *, #147, .F. ) ;
#25 = CARTESIAN_POINT ( 'NONE',  ( -10.88362987834987700, -161.0580439593633500, 0.0000000000000000000 ) ) ;
#26 = VECTOR ( 'NONE', #90, 39.37007874015748100 ) ;
#27 = CARTESIAN_POINT ( 'NONE',  ( -4.542879513588951900, -170.2608589538884000, 0.04800000000000000100 ) ) ;
#28 = VERTEX_POINT ( 'NONE', #123 ) ;
#29 = PRODUCT_DEFINITION ( 'UNKNOWN', '', #40, #107 ) ;
#30 = CARTESIAN_POINT ( 'NONE',  ( 4.542879513588845300, -170.2608589538885200, 0.0000000000000000000 ) ) ;
#31 = SURFACE_STYLE_USAGE ( .BOTH. , #45 ) ;
#32 = SURFACE_SIDE_STYLE ('',( #141 ) ) ;
#33 = PLANE ( 'NONE',  #38 ) ;
#34 = EDGE_CURVE ( 'NONE', #122, #61, #138, .T. ) ;
#35 = CLOSED_SHELL ( 'NONE', ( #7, #48, #120, #73 ) ) ;
#36 = DIMENSIONAL_EXPONENTS ( 1.000000000000000000, 0.0000000000000000000, 0.0000000000000000000, 0.0000000000000000000, 0.0000000000000000000, 0.0000000000000000000, 0.0000000000000000000 ) ;
#37 =( NAMED_UNIT ( * ) SI_UNIT ( $, .STERADIAN. ) SOLID_ANGLE_UNIT ( ) );
#38 = AXIS2_PLACEMENT_3D ( 'NONE', #18, #8, #118 ) ;
#39 = CARTESIAN_POINT ( 'NONE',  ( -10.88362987834987700, -161.0580439593633500, 0.04800000000000000100 ) ) ;
#40 = PRODUCT_DEFINITION_FORMATION_WITH_SPECIFIED_SOURCE ( 'ANY', '', #144, .NOT_KNOWN. ) ;
#41 = EDGE_CURVE ( 'NONE', #61, #122, #62, .T. ) ;
#42 =( CONVERSION_BASED_UNIT ( 'INCH', #78 ) LENGTH_UNIT ( ) NAMED_UNIT ( #43 ) );
#43 = DIMENSIONAL_EXPONENTS ( 1.000000000000000000, 0.0000000000000000000, 0.0000000000000000000, 0.0000000000000000000, 0.0000000000000000000, 0.0000000000000000000, 0.0000000000000000000 ) ;
#44 = FILL_AREA_STYLE_COLOUR ( '', #16 ) ;
#45 = SURFACE_SIDE_STYLE ('',( #15 ) ) ;
#46 = FILL_AREA_STYLE ('',( #71 ) ) ;
#47 = PLANE ( 'NONE',  #93 ) ;
#48 = ADVANCED_FACE ( 'NONE', ( #10 ), #3, .F. ) ;
#49 = COLOUR_RGB ( '',0.7921568627450980000, 0.8196078431372548800, 0.9333333333333333500 ) ;
#50 =( NAMED_UNIT ( * ) SI_UNIT ( $, .STERADIAN. ) SOLID_ANGLE_UNIT ( ) );
#51 = DIRECTION ( 'NONE',  ( -1.000000000000000000, 1.445790110412306500E-014, -0.0000000000000000000 ) ) ;
#52 = CARTESIAN_POINT ( 'NONE',  ( -10.88362987834987700, -161.0580439593633500, 0.04800000000000000100 ) ) ;
#53 = LINE ( 'NONE', #86, #17 ) ;
#54 = EDGE_CURVE ( 'NONE', #91, #28, #92, .T. ) ;
#55 = UNCERTAINTY_MEASURE_WITH_UNIT (LENGTH_MEASURE( 1.000000000000000100E-005 ), #42, 'distance_accuracy_value', 'NONE');
#56 = CARTESIAN_POINT ( 'NONE',  ( 10.88362987834989000, -161.0580439593636900, 0.0000000000000000000 ) ) ;
#57 = PRODUCT_RELATED_PRODUCT_CATEGORY ( 'part', '', ( #144 ) ) ;
#58 = EDGE_LOOP ( 'NONE', ( #64, #142, #146, #20 ) ) ;
#59 =( LENGTH_UNIT ( ) NAMED_UNIT ( * ) SI_UNIT ( $, .METRE. ) );
#60 =( GEOMETRIC_REPRESENTATION_CONTEXT ( 3 ) GLOBAL_UNCERTAINTY_ASSIGNED_CONTEXT ( ( #55 ) ) GLOBAL_UNIT_ASSIGNED_CONTEXT ( ( #42, #66, #50 ) ) REPRESENTATION_CONTEXT ( 'NONE', 'WORKASPACE' ) );
#61 = VERTEX_POINT ( 'NONE', #9 ) ;
#62 =( BOUNDED_CURVE ( )  B_SPLINE_CURVE ( 3, ( #52, #94, #129, #85 ),
 .UNSPECIFIED., .F., .F. ) 
 B_SPLINE_CURVE_WITH_KNOTS ( ( 4, 4 ),
 ( 2.343226589715633700, 3.939958717463932100 ),
 .UNSPECIFIED. ) 
 CURVE ( )  GEOMETRIC_REPRESENTATION_ITEM ( )  RATIONAL_B_SPLINE_CURVE ( ( 1.000000000000000000, 0.7985852618949570400, 0.7985852618949570400, 1.000000000000000000 ) ) 
 REPRESENTATION_ITEM ( '' )  );
#63 = LINE ( 'NONE', #68, #26 ) ;
#64 = ORIENTED_EDGE ( 'NONE', *, *, #54, .T. ) ;
#65 = CARTESIAN_POINT ( 'NONE',  ( 4.542879513588845300, -170.2608589538885200, 0.0000000000000000000 ) ) ;
#66 =( NAMED_UNIT ( * ) PLANE_ANGLE_UNIT ( ) SI_UNIT ( $, .RADIAN. ) );
#67 = ORIENTED_EDGE ( 'NONE', *, *, #54, .F. ) ;
#68 = CARTESIAN_POINT ( 'NONE',  ( -10.88362987834987700, -161.0580439593633500, 0.04800000000000000100 ) ) ;
#69 = ORIENTED_EDGE ( 'NONE', *, *, #1, .F. ) ;
#70 =( GEOMETRIC_REPRESENTATION_CONTEXT ( 3 ) GLOBAL_UNCERTAINTY_ASSIGNED_CONTEXT ( ( #14 ) ) GLOBAL_UNIT_ASSIGNED_CONTEXT ( ( #150, #145, #134 ) ) REPRESENTATION_CONTEXT ( 'NONE', 'WORKASPACE' ) );
#71 = FILL_AREA_STYLE_COLOUR ( '', #49 ) ;
#72 = MANIFOLD_SOLID_BREP ( 'Extrude1', #35 ) ;
#73 = ADVANCED_FACE ( 'NONE', ( #4 ), #47, .F. ) ;
#74 = AXIS2_PLACEMENT_3D ( 'NONE', #131, #83, #23 ) ;
#75 = DIRECTION ( 'NONE',  ( 0.0000000000000000000, 0.0000000000000000000, 1.000000000000000000 ) ) ;
#76 = DIRECTION ( 'NONE',  ( 0.0000000000000000000, 0.0000000000000000000, 1.000000000000000000 ) ) ;
#77 = CARTESIAN_POINT ( 'NONE',  ( -10.88362987834986700, -161.0580439593633500, 0.04800000000000000100 ) ) ;
#78 = LENGTH_MEASURE_WITH_UNIT ( LENGTH_MEASURE( 0.02539999999999999900 ), #116 );
#79 = PRESENTATION_STYLE_ASSIGNMENT (( #31 ) ) ;
#80 = PRESENTATION_LAYER_ASSIGNMENT (  '', '', ( #117 ) ) ;
#81 = DIRECTION ( 'NONE',  ( -1.000000000000000000, 1.445790110412306500E-014, -0.0000000000000000000 ) ) ;
#82 = LINE ( 'NONE', #139, #87 ) ;
#83 = DIRECTION ( 'NONE',  ( -1.445790110412306500E-014, -1.000000000000000000, 0.0000000000000000000 ) ) ;
#84 = ADVANCED_BREP_SHAPE_REPRESENTATION ( 'D1001018-v3', ( #72, #136 ), #128 ) ;
#85 = CARTESIAN_POINT ( 'NONE',  ( 10.88362987834989000, -161.0580439593636900, 0.04800000000000000100 ) ) ;
#86 = CARTESIAN_POINT ( 'NONE',  ( -10.88362987834987700, -161.0580439593633500, 0.0000000000000000000 ) ) ;
#87 = VECTOR ( 'NONE', #114, 39.37007874015748100 ) ;
#88 = APPLICATION_PROTOCOL_DEFINITION ( 'draft international standard', 'automotive_design', 1998, #89 ) ;
#89 = APPLICATION_CONTEXT ( 'automotive_design' ) ;
#90 = DIRECTION ( 'NONE',  ( -0.0000000000000000000, -0.0000000000000000000, -1.000000000000000000 ) ) ;
#91 = VERTEX_POINT ( 'NONE', #19 ) ;
#92 =( BOUNDED_CURVE ( )  B_SPLINE_CURVE ( 3, ( #25, #11, #30, #130 ),
 .UNSPECIFIED., .F., .T. ) 
 B_SPLINE_CURVE_WITH_KNOTS ( ( 4, 4 ),
 ( 2.343226589715633700, 3.939958717463932100 ),
 .UNSPECIFIED. ) 
 CURVE ( )  GEOMETRIC_REPRESENTATION_ITEM ( )  RATIONAL_B_SPLINE_CURVE ( ( 1.000000000000000000, 0.7985852618949570400, 0.7985852618949570400, 1.000000000000000000 ) ) 
 REPRESENTATION_ITEM ( '' )  );
#93 = AXIS2_PLACEMENT_3D ( 'NONE', #135, #76, #13 ) ;
#94 = CARTESIAN_POINT ( 'NONE',  ( -4.542879513588959900, -170.2608589538884300, 0.04800000000000000800 ) ) ;
#95 = CARTESIAN_POINT ( 'NONE',  ( 10.88362987834989000, -161.0580439593636900, 0.04800000000000000100 ) ) ;
#96 = ORIENTED_EDGE ( 'NONE', *, *, #22, .T. ) ;
#97 = FACE_OUTER_BOUND ( 'NONE', #125, .T. ) ;
#98 = CARTESIAN_POINT ( 'NONE',  ( -10.88362987834986700, -161.0580439593633500, 0.0000000000000000000 ) ) ;
#99 = EDGE_LOOP ( 'NONE', ( #67, #69 ) ) ;
#100 = MECHANICAL_DESIGN_GEOMETRIC_PRESENTATION_REPRESENTATION (  '', ( #117 ), #60 ) ;
#101 = APPLICATION_CONTEXT ( 'automotive_design' ) ;
#102 =( NAMED_UNIT ( * ) PLANE_ANGLE_UNIT ( ) SI_UNIT ( $, .RADIAN. ) );
#103 = SHAPE_DEFINITION_REPRESENTATION ( #126, #84 ) ;
#104 = ORIENTED_EDGE ( 'NONE', *, *, #1, .T. ) ;
#105 = STYLED_ITEM ( 'NONE', ( #79 ), #72 ) ;
#106 =( BOUNDED_SURFACE ( )  B_SPLINE_SURFACE ( 3, 1, ( 
 ( #77, #98 ),
 ( #27, #5 ),
 ( #108, #65 ),
 ( #132, #56 ) ),
 .UNSPECIFIED., .F., .F., .F. ) 
 B_SPLINE_SURFACE_WITH_KNOTS ( ( 4, 4 ),
 ( 2, 2 ),
 ( 0.0000000000000000000, 1.000000000000000000 ),
 ( 0.0000000000000000000, 1.000000000000000000 ),
 .UNSPECIFIED. ) 
 GEOMETRIC_REPRESENTATION_ITEM ( )  RATIONAL_B_SPLINE_SURFACE ( (
 ( 1.000000000000000000, 1.000000000000000000),
 ( 0.7985852618949570400, 0.7985852618949570400),
 ( 0.7985852618949570400, 0.7985852618949570400),
 ( 1.000000000000000000, 1.000000000000000000) ) ) 
 REPRESENTATION_ITEM ( '' )  SURFACE ( )  );
#107 = PRODUCT_DEFINITION_CONTEXT ( 'detailed design', #101, 'design' ) ;
#108 = CARTESIAN_POINT ( 'NONE',  ( 4.542879513588845300, -170.2608589538885200, 0.04800000000000000100 ) ) ;
#109 = VECTOR ( 'NONE', #51, 39.37007874015748100 ) ;
#110 = UNCERTAINTY_MEASURE_WITH_UNIT (LENGTH_MEASURE( 1.000000000000000100E-005 ), #112, 'distance_accuracy_value', 'NONE');
#111 = MECHANICAL_DESIGN_GEOMETRIC_PRESENTATION_REPRESENTATION (  '', ( #105 ), #70 ) ;
#112 =( CONVERSION_BASED_UNIT ( 'INCH', #148 ) LENGTH_UNIT ( ) NAMED_UNIT ( #36 ) );
#113 =( LENGTH_UNIT ( ) NAMED_UNIT ( * ) SI_UNIT ( $, .METRE. ) );
#114 = DIRECTION ( 'NONE',  ( -0.0000000000000000000, -0.0000000000000000000, -1.000000000000000000 ) ) ;
#115 = PRESENTATION_STYLE_ASSIGNMENT (( #121 ) ) ;
#116 =( LENGTH_UNIT ( ) NAMED_UNIT ( * ) SI_UNIT ( $, .METRE. ) );
#117 = STYLED_ITEM ( 'NONE', ( #115 ), #84 ) ;
#118 = DIRECTION ( 'NONE',  ( 1.000000000000000000, 0.0000000000000000000, -0.0000000000000000000 ) ) ;
#119 = EDGE_LOOP ( 'NONE', ( #104, #24, #151, #96 ) ) ;
#120 = ADVANCED_FACE ( 'NONE', ( #97 ), #33, .T. ) ;
#121 = SURFACE_STYLE_USAGE ( .BOTH. , #32 ) ;
#122 = VERTEX_POINT ( 'NONE', #95 ) ;
#123 = CARTESIAN_POINT ( 'NONE',  ( 10.88362987834989000, -161.0580439593636900, 0.0000000000000000000 ) ) ;
#124 = CARTESIAN_POINT ( 'NONE',  ( 0.0000000000000000000, 0.0000000000000000000, 0.0000000000000000000 ) ) ;
#125 = EDGE_LOOP ( 'NONE', ( #149, #127 ) ) ;
#126 = PRODUCT_DEFINITION_SHAPE ( 'NONE', 'NONE',  #29 ) ;
#127 = ORIENTED_EDGE ( 'NONE', *, *, #34, .T. ) ;
#128 =( GEOMETRIC_REPRESENTATION_CONTEXT ( 3 ) GLOBAL_UNCERTAINTY_ASSIGNED_CONTEXT ( ( #110 ) ) GLOBAL_UNIT_ASSIGNED_CONTEXT ( ( #112, #102, #37 ) ) REPRESENTATION_CONTEXT ( 'NONE', 'WORKASPACE' ) );
#129 = CARTESIAN_POINT ( 'NONE',  ( 4.542879513588845300, -170.2608589538885200, 0.04800000000000000800 ) ) ;
#130 = CARTESIAN_POINT ( 'NONE',  ( 10.88362987834989000, -161.0580439593636900, 0.0000000000000000000 ) ) ;
#131 = CARTESIAN_POINT ( 'NONE',  ( -10.88362987834987700, -161.0580439593633500, 0.04800000000000000100 ) ) ;
#132 = CARTESIAN_POINT ( 'NONE',  ( 10.88362987834989000, -161.0580439593636900, 0.04800000000000000100 ) ) ;
#133 = LENGTH_MEASURE_WITH_UNIT ( LENGTH_MEASURE( 0.02539999999999999900 ), #59 );
#134 =( NAMED_UNIT ( * ) SI_UNIT ( $, .STERADIAN. ) SOLID_ANGLE_UNIT ( ) );
#135 = CARTESIAN_POINT ( 'NONE',  ( 1.181361670310219000E-013, -146.0603763626276600, 0.0000000000000000000 ) ) ;
#136 = AXIS2_PLACEMENT_3D ( 'NONE', #124, #75, #2 ) ;
#137 = FILL_AREA_STYLE ('',( #44 ) ) ;
#138 = LINE ( 'NONE', #39, #109 ) ;
#139 = CARTESIAN_POINT ( 'NONE',  ( 10.88362987834989000, -161.0580439593636900, 0.04800000000000000100 ) ) ;
#140 = DIMENSIONAL_EXPONENTS ( 1.000000000000000000, 0.0000000000000000000, 0.0000000000000000000, 0.0000000000000000000, 0.0000000000000000000, 0.0000000000000000000, 0.0000000000000000000 ) ;
#141 = SURFACE_STYLE_FILL_AREA ( #137 ) ;
#142 = ORIENTED_EDGE ( 'NONE', *, *, #22, .F. ) ;
#143 = PRESENTATION_LAYER_ASSIGNMENT (  '', '', ( #105 ) ) ;
#144 = PRODUCT ( 'D1001018-v3', 'D1001018-v3', '', ( #12 ) ) ;
#145 =( NAMED_UNIT ( * ) PLANE_ANGLE_UNIT ( ) SI_UNIT ( $, .RADIAN. ) );
#146 = ORIENTED_EDGE ( 'NONE', *, *, #41, .F. ) ;
#147 = EDGE_CURVE ( 'NONE', #61, #91, #63, .T. ) ;
#148 = LENGTH_MEASURE_WITH_UNIT ( LENGTH_MEASURE( 0.02539999999999999900 ), #113 );
#149 = ORIENTED_EDGE ( 'NONE', *, *, #41, .T. ) ;
#150 =( CONVERSION_BASED_UNIT ( 'INCH', #133 ) LENGTH_UNIT ( ) NAMED_UNIT ( #140 ) );
#151 = ORIENTED_EDGE ( 'NONE', *, *, #34, .F. ) ;
ENDSEC;
END-ISO-10303-21;
