ISO-10303-21;
HEADER;
FILE_DESCRIPTION (( 'STEP AP203' ),
    '1' );
FILE_NAME ('D1000583-v2_aLIGO_SUS_HSTS_WIRE START CLAMP, TOP.STEP',
    '2010-09-01T20:40:37',
    ( 'Dwayne Giardina' ),
    ( 'CA Institute of Technology' ),
    'SwSTEP 2.0',
    'SolidWorks 2010',
    '' );
FILE_SCHEMA (( 'CONFIG_CONTROL_DESIGN' ));
ENDSEC;

DATA;
#1 = CARTESIAN_POINT ( 'NONE',  ( -0.1562500000000000000, 0.1499999999999999900, 0.06424999999999975200 ) ) ;
#2 = DIRECTION ( 'NONE',  ( 0.0000000000000000000, -0.0000000000000000000, 1.000000000000000000 ) ) ;
#3 = CARTESIAN_POINT ( 'NONE',  ( -0.1562500000000000000, 0.1500000000000000500, 0.0000000000000000000 ) ) ;
#4 = CARTESIAN_POINT ( 'NONE',  ( -0.2650000000000000700, 0.1499999999999999900, -0.1250000000000000600 ) ) ;
#5 = DIRECTION ( 'NONE',  ( 1.365923996832131600E-016, 0.0000000000000000000, 1.000000000000000000 ) ) ;
#6 = DIRECTION ( 'NONE',  ( 0.0000000000000000000, 0.0000000000000000000, 1.000000000000000000 ) ) ;
#7 =( NAMED_UNIT ( * ) SI_UNIT ( $, .STERADIAN. ) SOLID_ANGLE_UNIT ( ) );
#8 = CARTESIAN_POINT ( 'NONE',  ( 0.1562500000000000000, 0.0000000000000000000, 0.0000000000000000000 ) ) ;
#9 = DIRECTION ( 'NONE',  ( 1.000000000000000000, 0.0000000000000000000, 0.0000000000000000000 ) ) ;
#10 = CARTESIAN_POINT ( 'NONE',  ( -0.2650000000000000700, 0.0000000000000000000, -0.1250000000000000600 ) ) ;
#11 = CARTESIAN_POINT ( 'NONE',  ( -0.2650000000000000100, 0.0000000000000000000, 0.1249999999999999300 ) ) ;
#12 = DIRECTION ( 'NONE',  ( -0.0000000000000000000, -1.000000000000000000, -0.0000000000000000000 ) ) ;
#13 = DIRECTION ( 'NONE',  ( -1.365923996832131600E-016, -0.0000000000000000000, -1.000000000000000000 ) ) ;
#14 = DIRECTION ( 'NONE',  ( 0.0000000000000000000, 0.0000000000000000000, 1.000000000000000000 ) ) ;
#15 = DIRECTION ( 'NONE',  ( -0.0000000000000000000, -1.000000000000000000, -0.0000000000000000000 ) ) ;
#16 = DIRECTION ( 'NONE',  ( -1.000000000000000000, -0.0000000000000000000, -0.0000000000000000000 ) ) ;
#17 = CARTESIAN_POINT ( 'NONE',  ( 0.1562500000000000000, 0.1500000000000000500, 0.0000000000000000000 ) ) ;
#18 =( CONVERSION_BASED_UNIT ( 'INCH', #249 ) LENGTH_UNIT ( ) NAMED_UNIT ( #166 ) );
#19 = CARTESIAN_POINT ( 'NONE',  ( -0.2650000000000000700, 0.1499999999999999900, -0.1250000000000000600 ) ) ;
#20 = CARTESIAN_POINT ( 'NONE',  ( -0.2650000000000000700, 0.1499999999999999900, -0.1250000000000000600 ) ) ;
#21 = DIRECTION ( 'NONE',  ( 0.0000000000000000000, 0.0000000000000000000, 1.000000000000000000 ) ) ;
#22 = PLANE ( 'NONE',  #380 ) ;
#23 =( NAMED_UNIT ( * ) PLANE_ANGLE_UNIT ( ) SI_UNIT ( $, .RADIAN. ) );
#24 = CARTESIAN_POINT ( 'NONE',  ( 0.0000000000000000000, 0.0000000000000000000, 0.0000000000000000000 ) ) ;
#25 = DIRECTION ( 'NONE',  ( -0.0000000000000000000, 1.000000000000000000, -0.0000000000000000000 ) ) ;
#26 = DIRECTION ( 'NONE',  ( -0.0000000000000000000, 1.000000000000000000, -0.0000000000000000000 ) ) ;
#27 = DIRECTION ( 'NONE',  ( 0.0000000000000000000, 0.0000000000000000000, 1.000000000000000000 ) ) ;
#28 = DIRECTION ( 'NONE',  ( 0.0000000000000000000, -0.0000000000000000000, 1.000000000000000000 ) ) ;
#29 = APPLICATION_CONTEXT ( 'configuration controlled 3d designs of mechanical parts and assemblies' ) ;
#30 = APPLICATION_PROTOCOL_DEFINITION ( 'international standard', 'config_control_design', 1994, #36 ) ;
#31 = APPROVAL_STATUS ( 'not_yet_approved' ) ;
#32 = PERSON_AND_ORGANIZATION_ROLE ( 'design_owner' ) ;
#33 = APPLICATION_PROTOCOL_DEFINITION ( 'international standard', 'config_control_design', 1994, #29 ) ;
#34 = APPROVAL_ROLE ( '' ) ;
#35 = PERSON_AND_ORGANIZATION_ROLE ( 'creator' ) ;
#36 = APPLICATION_CONTEXT ( 'configuration controlled 3d designs of mechanical parts and assemblies' ) ;
#37 = MECHANICAL_CONTEXT ( 'NONE', #29, 'mechanical' ) ;
#38 = DATE_TIME_ROLE ( 'creation_date' ) ;
#39 = APPROVAL_ROLE ( '' ) ;
#40 = CARTESIAN_POINT ( 'NONE',  ( -0.2650000000000000100, 0.1499999999999999900, 0.1249999999999999300 ) ) ;
#41 = APPROVAL_STATUS ( 'not_yet_approved' ) ;
#42 = PERSON_AND_ORGANIZATION_ROLE ( 'creator' ) ;
#43 = PLANE ( 'NONE',  #377 ) ;
#44 = DIRECTION ( 'NONE',  ( 0.0000000000000000000, 0.0000000000000000000, 1.000000000000000000 ) ) ;
#45 = DIRECTION ( 'NONE',  ( -1.000000000000000000, 0.0000000000000000000, -0.0000000000000000000 ) ) ;
#46 = DIRECTION ( 'NONE',  ( 0.0000000000000000000, 0.0000000000000000000, 1.000000000000000000 ) ) ;
#47 = DIRECTION ( 'NONE',  ( 0.0000000000000000000, 1.000000000000000000, 0.0000000000000000000 ) ) ;
#48 = DIRECTION ( 'NONE',  ( -0.0000000000000000000, 1.000000000000000000, -0.0000000000000000000 ) ) ;
#49 = PLANE ( 'NONE',  #376 ) ;
#50 = DIRECTION ( 'NONE',  ( 1.000000000000000000, 0.0000000000000000000, 0.0000000000000000000 ) ) ;
#51 = CARTESIAN_POINT ( 'NONE',  ( 0.2650000000000000100, 0.1499999999999999900, 0.1249999999999999300 ) ) ;
#52 = PLANE ( 'NONE',  #379 ) ;
#53 = CARTESIAN_POINT ( 'NONE',  ( 0.2650000000000000100, 0.0000000000000000000, 0.1249999999999999300 ) ) ;
#54 = DIRECTION ( 'NONE',  ( -0.0000000000000000000, 1.000000000000000000, -0.0000000000000000000 ) ) ;
#55 = DIRECTION ( 'NONE',  ( -0.0000000000000000000, 1.000000000000000000, -0.0000000000000000000 ) ) ;
#56 = DIRECTION ( 'NONE',  ( 0.0000000000000000000, 0.0000000000000000000, 1.000000000000000000 ) ) ;
#57 = DIRECTION ( 'NONE',  ( -0.0000000000000000000, 1.000000000000000000, -0.0000000000000000000 ) ) ;
#58 = DIRECTION ( 'NONE',  ( -1.000000000000000000, -0.0000000000000000000, -0.0000000000000000000 ) ) ;
#59 = CARTESIAN_POINT ( 'NONE',  ( 0.2649999999999999600, 0.0000000000000000000, -0.1250000000000000600 ) ) ;
#60 = DIRECTION ( 'NONE',  ( -0.0000000000000000000, -1.000000000000000000, -0.0000000000000000000 ) ) ;
#61 =( LENGTH_UNIT ( ) NAMED_UNIT ( * ) SI_UNIT ( $, .METRE. ) );
#62 = CARTESIAN_POINT ( 'NONE',  ( -0.1562500000000000000, 0.1499999999999999900, -0.06424999999999975200 ) ) ;
#63 = DIRECTION ( 'NONE',  ( 1.365923996832131600E-016, 0.0000000000000000000, 1.000000000000000000 ) ) ;
#64 = DIRECTION ( 'NONE',  ( -0.0000000000000000000, 1.000000000000000000, -0.0000000000000000000 ) ) ;
#65 = CARTESIAN_POINT ( 'NONE',  ( 0.2649999999999999600, 0.0000000000000000000, -0.1250000000000000600 ) ) ;
#66 = DIRECTION ( 'NONE',  ( 1.000000000000000000, 0.0000000000000000000, 0.0000000000000000000 ) ) ;
#67 = CARTESIAN_POINT ( 'NONE',  ( 0.1562500000000000000, 0.1500000000000000500, 0.0000000000000000000 ) ) ;
#68 = CARTESIAN_POINT ( 'NONE',  ( 0.1562500000000000000, 0.1499999999999999900, 0.0000000000000000000 ) ) ;
#69 = DIRECTION ( 'NONE',  ( -1.365923996832131900E-016, 0.0000000000000000000, -1.000000000000000000 ) ) ;
#70 = DIRECTION ( 'NONE',  ( 1.000000000000000000, 0.0000000000000000000, -1.365923996832131900E-016 ) ) ;
#71 = CARTESIAN_POINT ( 'NONE',  ( 0.2650000000000000100, 0.1499999999999999900, 0.1249999999999999300 ) ) ;
#72 = CARTESIAN_POINT ( 'NONE',  ( 0.2649999999999999600, 0.1499999999999999900, -0.1250000000000000600 ) ) ;
#73 = PLANE ( 'NONE',  #381 ) ;
#74 = DIRECTION ( 'NONE',  ( 0.0000000000000000000, 0.0000000000000000000, 1.000000000000000000 ) ) ;
#75 = DIRECTION ( 'NONE',  ( 0.0000000000000000000, 1.000000000000000000, 0.0000000000000000000 ) ) ;
#76 = DIRECTION ( 'NONE',  ( -0.0000000000000000000, 1.000000000000000000, -0.0000000000000000000 ) ) ;
#77 = DIRECTION ( 'NONE',  ( 0.0000000000000000000, 0.0000000000000000000, -1.000000000000000000 ) ) ;
#78 = DIRECTION ( 'NONE',  ( 0.0000000000000000000, 0.0000000000000000000, 1.000000000000000000 ) ) ;
#79 = CARTESIAN_POINT ( 'NONE',  ( -0.1562500000000000000, 0.1499999999999999900, 0.0000000000000000000 ) ) ;
#80 = CARTESIAN_POINT ( 'NONE',  ( -0.2650000000000000700, 0.1499999999999999900, -0.1250000000000000600 ) ) ;
#81 = CARTESIAN_POINT ( 'NONE',  ( -0.2650000000000000100, 0.1499999999999999900, 0.1249999999999999300 ) ) ;
#82 = DIRECTION ( 'NONE',  ( -0.0000000000000000000, 1.000000000000000000, -0.0000000000000000000 ) ) ;
#83 = DIRECTION ( 'NONE',  ( 0.0000000000000000000, 0.0000000000000000000, 1.000000000000000000 ) ) ;
#84 = PLANE ( 'NONE',  #373 ) ;
#85 = CARTESIAN_POINT ( 'NONE',  ( -0.2650000000000000700, 0.0000000000000000000, -0.1250000000000000600 ) ) ;
#86 = VERTEX_POINT ( 'NONE', #65 ) ;
#87 = VERTEX_POINT ( 'NONE', #146 ) ;
#88 = VERTEX_POINT ( 'NONE', #148 ) ;
#89 = VERTEX_POINT ( 'NONE', #94 ) ;
#90 = VERTEX_POINT ( 'NONE', #143 ) ;
#91 = CARTESIAN_POINT ( 'NONE',  ( -0.2650000000000000100, 0.0000000000000000000, 0.1249999999999999300 ) ) ;
#92 = CARTESIAN_POINT ( 'NONE',  ( -0.1562500000000000000, 0.0000000000000000000, -0.06424999999999997400 ) ) ;
#93 = CARTESIAN_POINT ( 'NONE',  ( -0.1562500000000000000, 0.0000000000000000000, 0.06424999999999997400 ) ) ;
#94 = CARTESIAN_POINT ( 'NONE',  ( 0.2650000000000000100, 0.1499999999999999900, 0.1249999999999999300 ) ) ;
#95 = VERTEX_POINT ( 'NONE', #97 ) ;
#96 = CARTESIAN_POINT ( 'NONE',  ( -0.1562500000000000000, 0.1500000000000000500, -0.06424999999999953000 ) ) ;
#97 = CARTESIAN_POINT ( 'NONE',  ( -0.1562500000000000000, 0.1500000000000000500, 0.06424999999999953000 ) ) ;
#98 = CARTESIAN_POINT ( 'NONE',  ( 0.2650000000000000100, 0.0000000000000000000, 0.1249999999999999300 ) ) ;
#99 = CARTESIAN_POINT ( 'NONE',  ( -0.2650000000000000100, 0.1499999999999999900, 0.1249999999999999300 ) ) ;
#100 = CARTESIAN_POINT ( 'NONE',  ( 0.1562500000000000000, 0.0000000000000000000, -0.06424999999999997400 ) ) ;
#101 = CARTESIAN_POINT ( 'NONE',  ( 0.1562500000000000000, 0.0000000000000000000, 0.06424999999999997400 ) ) ;
#102 = VERTEX_POINT ( 'NONE', #147 ) ;
#103 = VERTEX_POINT ( 'NONE', #96 ) ;
#104 = VERTEX_POINT ( 'NONE', #99 ) ;
#105 = VERTEX_POINT ( 'NONE', #98 ) ;
#106 = DIRECTION ( 'NONE',  ( 1.000000000000000000, 0.0000000000000000000, -0.0000000000000000000 ) ) ;
#107 = APPROVAL_STATUS ( 'not_yet_approved' ) ;
#108 = DATE_TIME_ROLE ( 'classification_date' ) ;
#109 = DIRECTION ( 'NONE',  ( -0.0000000000000000000, 1.000000000000000000, -0.0000000000000000000 ) ) ;
#110 = DIRECTION ( 'NONE',  ( 0.0000000000000000000, 0.0000000000000000000, 1.000000000000000000 ) ) ;
#111 = CARTESIAN_POINT ( 'NONE',  ( -0.2650000000000000100, 0.1499999999999999900, 0.1249999999999999300 ) ) ;
#112 = DIRECTION ( 'NONE',  ( 0.0000000000000000000, 0.0000000000000000000, 1.000000000000000000 ) ) ;
#113 = CARTESIAN_POINT ( 'NONE',  ( -0.1562500000000000000, 0.0000000000000000000, 0.0000000000000000000 ) ) ;
#114 = CARTESIAN_POINT ( 'NONE',  ( 0.2649999999999999600, 0.1499999999999999900, -0.1250000000000000600 ) ) ;
#115 = SECURITY_CLASSIFICATION_LEVEL ( 'unclassified' ) ;
#116 = DIRECTION ( 'NONE',  ( -0.0000000000000000000, 1.000000000000000000, -0.0000000000000000000 ) ) ;
#117 = DIRECTION ( 'NONE',  ( -0.0000000000000000000, 1.000000000000000000, -0.0000000000000000000 ) ) ;
#118 = CARTESIAN_POINT ( 'NONE',  ( -0.1562500000000000000, 0.1500000000000000500, 0.0000000000000000000 ) ) ;
#119 = DIRECTION ( 'NONE',  ( -0.0000000000000000000, 1.000000000000000000, -0.0000000000000000000 ) ) ;
#120 = CARTESIAN_POINT ( 'NONE',  ( 0.1562500000000000000, 0.1499999999999999900, 0.06424999999999975200 ) ) ;
#121 = DIRECTION ( 'NONE',  ( -1.365923996832131600E-016, -0.0000000000000000000, -1.000000000000000000 ) ) ;
#122 = PERSON_AND_ORGANIZATION_ROLE ( 'classification_officer' ) ;
#123 = CARTESIAN_POINT ( 'NONE',  ( 0.1562500000000000000, 0.1499999999999999900, -0.06424999999999975200 ) ) ;
#124 = CARTESIAN_POINT ( 'NONE',  ( -0.1562500000000000000, 0.0000000000000000000, 0.0000000000000000000 ) ) ;
#125 = CARTESIAN_POINT ( 'NONE',  ( -0.1562500000000000000, 0.1499999999999999900, 0.0000000000000000000 ) ) ;
#126 = DIRECTION ( 'NONE',  ( -0.0000000000000000000, 1.000000000000000000, -0.0000000000000000000 ) ) ;
#127 = DIRECTION ( 'NONE',  ( 1.365923996832131900E-016, 0.0000000000000000000, 1.000000000000000000 ) ) ;
#128 = DIRECTION ( 'NONE',  ( 0.0000000000000000000, 0.0000000000000000000, 1.000000000000000000 ) ) ;
#129 = CARTESIAN_POINT ( 'NONE',  ( 0.2649999999999999600, 0.1499999999999999900, -0.1250000000000000600 ) ) ;
#130 = DIRECTION ( 'NONE',  ( -1.000000000000000000, 0.0000000000000000000, 1.365923996832131900E-016 ) ) ;
#131 = DIRECTION ( 'NONE',  ( -0.0000000000000000000, 1.000000000000000000, -0.0000000000000000000 ) ) ;
#132 = APPROVAL_ROLE ( '' ) ;
#133 = CARTESIAN_POINT ( 'NONE',  ( -0.2650000000000000700, 0.0000000000000000000, -0.1250000000000000600 ) ) ;
#134 = DIRECTION ( 'NONE',  ( -0.0000000000000000000, -1.000000000000000000, -0.0000000000000000000 ) ) ;
#135 = CARTESIAN_POINT ( 'NONE',  ( 0.1562500000000000000, 0.0000000000000000000, 0.0000000000000000000 ) ) ;
#136 = DIRECTION ( 'NONE',  ( 0.0000000000000000000, 0.0000000000000000000, 1.000000000000000000 ) ) ;
#137 = VERTEX_POINT ( 'NONE', #101 ) ;
#138 = VERTEX_POINT ( 'NONE', #100 ) ;
#139 = CARTESIAN_POINT ( 'NONE',  ( -0.2650000000000000700, 0.1499999999999999900, -0.1250000000000000600 ) ) ;
#140 = VERTEX_POINT ( 'NONE', #93 ) ;
#141 = DIRECTION ( 'NONE',  ( -0.0000000000000000000, 1.000000000000000000, -0.0000000000000000000 ) ) ;
#142 = VERTEX_POINT ( 'NONE', #92 ) ;
#143 = CARTESIAN_POINT ( 'NONE',  ( 0.1562500000000000000, 0.1500000000000000500, 0.06424999999999953000 ) ) ;
#144 = PERSON_AND_ORGANIZATION_ROLE ( 'design_supplier' ) ;
#145 = CARTESIAN_POINT ( 'NONE',  ( 0.1562500000000000000, 0.1499999999999999900, 0.0000000000000000000 ) ) ;
#146 = CARTESIAN_POINT ( 'NONE',  ( 0.2649999999999999600, 0.1499999999999999900, -0.1250000000000000600 ) ) ;
#147 = CARTESIAN_POINT ( 'NONE',  ( -0.2650000000000000700, 0.1499999999999999900, -0.1250000000000000600 ) ) ;
#148 = CARTESIAN_POINT ( 'NONE',  ( 0.1562500000000000000, 0.1500000000000000500, -0.06424999999999953000 ) ) ;
#149 = VERTEX_POINT ( 'NONE', #91 ) ;
#150 = VERTEX_POINT ( 'NONE', #85 ) ;
#151 = PRODUCT_DEFINITION_SHAPE ( 'NONE', 'NONE',  #359 ) ;
#152 = DESIGN_CONTEXT ( 'detailed design', #36, 'design' ) ;
#153 = ADVANCED_BREP_SHAPE_REPRESENTATION ( 'D1000583-v2_aLIGO_SUS_HSTS_WIRE START CLAMP, TOP', ( #154, #327 ), #248 ) ;
#154 = MANIFOLD_SOLID_BREP ( '#4 Clearance Hole1', #191 ) ;
#155 = UNCERTAINTY_MEASURE_WITH_UNIT (LENGTH_MEASURE( 1.000000000000000100E-005 ), #18, 'distance_accuracy_value', 'NONE');
#156 = ADVANCED_FACE ( 'NONE', ( #183 ), #84, .F. ) ;
#157 = ADVANCED_FACE ( 'NONE', ( #190 ), #196, .F. ) ;
#158 = ADVANCED_FACE ( 'NONE', ( #192, #197, #199 ), #52, .F. ) ;
#159 = ADVANCED_FACE ( 'NONE', ( #203, #194, #204 ), #43, .T. ) ;
#160 = ADVANCED_FACE ( 'NONE', ( #195 ), #49, .F. ) ;
#161 = ADVANCED_FACE ( 'NONE', ( #220 ), #212, .F. ) ;
#162 = ADVANCED_FACE ( 'NONE', ( #201 ), #22, .F. ) ;
#163 = ADVANCED_FACE ( 'NONE', ( #205 ), #73, .F. ) ;
#164 = ADVANCED_FACE ( 'NONE', ( #198 ), #175, .F. ) ;
#165 = ADVANCED_FACE ( 'NONE', ( #202 ), #227, .F. ) ;
#166 = DIMENSIONAL_EXPONENTS ( 1.000000000000000000, 0.0000000000000000000, 0.0000000000000000000, 0.0000000000000000000, 0.0000000000000000000, 0.0000000000000000000, 0.0000000000000000000 ) ;
#167 = EDGE_LOOP ( 'NONE', ( #296, #307 ) ) ;
#168 = EDGE_LOOP ( 'NONE', ( #288, #187 ) ) ;
#169 = ORIENTED_EDGE ( 'NONE', *, *, #348, .F. ) ;
#170 = ORIENTED_EDGE ( 'NONE', *, *, #352, .F. ) ;
#171 = EDGE_LOOP ( 'NONE', ( #287, #188 ) ) ;
#172 = EDGE_LOOP ( 'NONE', ( #293, #292, #291, #294 ) ) ;
#173 = ORIENTED_EDGE ( 'NONE', *, *, #350, .T. ) ;
#174 = ORIENTED_EDGE ( 'NONE', *, *, #367, .F. ) ;
#175 = CYLINDRICAL_SURFACE ( 'NONE', #382, 0.06424999999999975200 ) ;
#176 = ORIENTED_EDGE ( 'NONE', *, *, #355, .F. ) ;
#177 = ORIENTED_EDGE ( 'NONE', *, *, #343, .T. ) ;
#178 = ORIENTED_EDGE ( 'NONE', *, *, #356, .F. ) ;
#179 = EDGE_LOOP ( 'NONE', ( #295, #169, #289, #290 ) ) ;
#180 = LINE ( 'NONE', #129, #215 ) ;
#181 = EDGE_LOOP ( 'NONE', ( #312, #317, #318, #320 ) ) ;
#182 = ORIENTED_EDGE ( 'NONE', *, *, #348, .T. ) ;
#183 = FACE_OUTER_BOUND ( 'NONE', #310, .T. ) ;
#184 = ORIENTED_EDGE ( 'NONE', *, *, #366, .T. ) ;
#185 = ORIENTED_EDGE ( 'NONE', *, *, #337, .F. ) ;
#186 = ORIENTED_EDGE ( 'NONE', *, *, #331, .F. ) ;
#187 = ORIENTED_EDGE ( 'NONE', *, *, #362, .F. ) ;
#188 = ORIENTED_EDGE ( 'NONE', *, *, #340, .T. ) ;
#189 = ORIENTED_EDGE ( 'NONE', *, *, #364, .T. ) ;
#190 = FACE_OUTER_BOUND ( 'NONE', #305, .T. ) ;
#191 = CLOSED_SHELL ( 'NONE', ( #157, #165, #163, #156, #162, #160, #159, #158, #161, #164 ) ) ;
#192 = FACE_BOUND ( 'NONE', #299, .T. ) ;
#193 = VECTOR ( 'NONE', #13, 39.37007874015748100 ) ;
#194 = FACE_BOUND ( 'NONE', #167, .T. ) ;
#195 = FACE_OUTER_BOUND ( 'NONE', #297, .T. ) ;
#196 = CYLINDRICAL_SURFACE ( 'NONE', #371, 0.06424999999999975200 ) ;
#197 = FACE_BOUND ( 'NONE', #171, .T. ) ;
#198 = FACE_OUTER_BOUND ( 'NONE', #181, .T. ) ;
#199 = FACE_OUTER_BOUND ( 'NONE', #179, .T. ) ;
#200 = ORIENTED_EDGE ( 'NONE', *, *, #363, .F. ) ;
#201 = FACE_OUTER_BOUND ( 'NONE', #308, .T. ) ;
#202 = FACE_OUTER_BOUND ( 'NONE', #311, .T. ) ;
#203 = FACE_BOUND ( 'NONE', #168, .T. ) ;
#204 = FACE_OUTER_BOUND ( 'NONE', #315, .T. ) ;
#205 = FACE_OUTER_BOUND ( 'NONE', #253, .T. ) ;
#206 = APPROVAL_DATE_TIME ( #207, #341 ) ;
#207 = DATE_AND_TIME ( #208, #209 ) ;
#208 = CALENDAR_DATE ( 2010, 1, 9 ) ;
#209 = LOCAL_TIME ( 15, 40, 37.00000000000000000, #210 ) ;
#210 = COORDINATED_UNIVERSAL_TIME_OFFSET ( 6, 0, .BEHIND. ) ;
#211 = APPROVAL_PERSON_ORGANIZATION ( #213, #341, #132 ) ;
#212 = CYLINDRICAL_SURFACE ( 'NONE', #358, 0.06424999999999975200 ) ;
#213 = PERSON_AND_ORGANIZATION ( #372, #246 ) ;
#214 = DATE_AND_TIME ( #216, #218 ) ;
#215 = VECTOR ( 'NONE', #134, 39.37007874015748100 ) ;
#216 = CALENDAR_DATE ( 2010, 1, 9 ) ;
#217 = VECTOR ( 'NONE', #60, 39.37007874015748100 ) ;
#218 = LOCAL_TIME ( 15, 40, 37.00000000000000000, #219 ) ;
#219 = COORDINATED_UNIVERSAL_TIME_OFFSET ( 6, 0, .BEHIND. ) ;
#220 = FACE_OUTER_BOUND ( 'NONE', #172, .T. ) ;
#221 = ORIENTED_EDGE ( 'NONE', *, *, #344, .T. ) ;
#222 = PERSON_AND_ORGANIZATION ( #372, #246 ) ;
#223 = PERSON_AND_ORGANIZATION ( #372, #246 ) ;
#224 = PERSON_AND_ORGANIZATION ( #372, #246 ) ;
#225 = APPROVAL_DATE_TIME ( #226, #360 ) ;
#226 = DATE_AND_TIME ( #228, #229 ) ;
#227 = CYLINDRICAL_SURFACE ( 'NONE', #383, 0.06424999999999975200 ) ;
#228 = CALENDAR_DATE ( 2010, 1, 9 ) ;
#229 = LOCAL_TIME ( 15, 40, 37.00000000000000000, #230 ) ;
#230 = COORDINATED_UNIVERSAL_TIME_OFFSET ( 6, 0, .BEHIND. ) ;
#231 = APPROVAL_PERSON_ORGANIZATION ( #232, #360, #39 ) ;
#232 = PERSON_AND_ORGANIZATION ( #372, #246 ) ;
#233 = DATE_AND_TIME ( #234, #235 ) ;
#234 = CALENDAR_DATE ( 2010, 1, 9 ) ;
#235 = LOCAL_TIME ( 15, 40, 37.00000000000000000, #236 ) ;
#236 = COORDINATED_UNIVERSAL_TIME_OFFSET ( 6, 0, .BEHIND. ) ;
#237 = PERSON_AND_ORGANIZATION ( #372, #246 ) ;
#238 = APPROVAL_DATE_TIME ( #239, #328 ) ;
#239 = DATE_AND_TIME ( #240, #241 ) ;
#240 = CALENDAR_DATE ( 2010, 1, 9 ) ;
#241 = LOCAL_TIME ( 15, 40, 37.00000000000000000, #242 ) ;
#242 = COORDINATED_UNIVERSAL_TIME_OFFSET ( 6, 0, .BEHIND. ) ;
#243 = APPROVAL_PERSON_ORGANIZATION ( #244, #328, #34 ) ;
#244 = PERSON_AND_ORGANIZATION ( #372, #246 ) ;
#245 = PERSON_AND_ORGANIZATION ( #372, #246 ) ;
#246 = ORGANIZATION ( 'UNSPECIFIED', 'UNSPECIFIED', '' ) ;
#247 = SHAPE_DEFINITION_REPRESENTATION ( #151, #153 ) ;
#248 =( GEOMETRIC_REPRESENTATION_CONTEXT ( 3 ) GLOBAL_UNCERTAINTY_ASSIGNED_CONTEXT ( ( #155 ) ) GLOBAL_UNIT_ASSIGNED_CONTEXT ( ( #18, #23, #7 ) ) REPRESENTATION_CONTEXT ( 'NONE', 'WORKASPACE' ) );
#249 = LENGTH_MEASURE_WITH_UNIT ( LENGTH_MEASURE( 0.02539999999999999900 ), #61 );
#250 = CIRCLE ( 'NONE', #378, 0.06424999999999997400 ) ;
#251 = CIRCLE ( 'NONE', #387, 0.06424999999999953000 ) ;
#252 = VECTOR ( 'NONE', #64, 39.37007874015748100 ) ;
#253 = EDGE_LOOP ( 'NONE', ( #177, #186, #170, #325 ) ) ;
#254 = LINE ( 'NONE', #81, #217 ) ;
#255 = CIRCLE ( 'NONE', #332, 0.06424999999999953000 ) ;
#256 = LINE ( 'NONE', #71, #262 ) ;
#257 = LINE ( 'NONE', #139, #260 ) ;
#258 = LINE ( 'NONE', #59, #193 ) ;
#259 = CIRCLE ( 'NONE', #375, 0.06424999999999997400 ) ;
#260 = VECTOR ( 'NONE', #12, 39.37007874015748100 ) ;
#261 = VECTOR ( 'NONE', #117, 39.37007874015748100 ) ;
#262 = VECTOR ( 'NONE', #15, 39.37007874015748100 ) ;
#263 = LINE ( 'NONE', #10, #264 ) ;
#264 = VECTOR ( 'NONE', #16, 39.37007874015748100 ) ;
#265 = LINE ( 'NONE', #11, #266 ) ;
#266 = VECTOR ( 'NONE', #66, 39.37007874015748100 ) ;
#267 = VECTOR ( 'NONE', #50, 39.37007874015748100 ) ;
#268 = LINE ( 'NONE', #123, #261 ) ;
#269 = CIRCLE ( 'NONE', #342, 0.06424999999999953000 ) ;
#270 = LINE ( 'NONE', #1, #285 ) ;
#271 = LINE ( 'NONE', #120, #274 ) ;
#272 = LINE ( 'NONE', #114, #319 ) ;
#273 = CIRCLE ( 'NONE', #384, 0.06424999999999997400 ) ;
#274 = VECTOR ( 'NONE', #116, 39.37007874015748100 ) ;
#275 = LINE ( 'NONE', #4, #276 ) ;
#276 = VECTOR ( 'NONE', #5, 39.37007874015748100 ) ;
#277 = LINE ( 'NONE', #19, #278 ) ;
#278 = VECTOR ( 'NONE', #58, 39.37007874015748100 ) ;
#279 = LINE ( 'NONE', #111, #267 ) ;
#280 = CIRCLE ( 'NONE', #385, 0.06424999999999953000 ) ;
#281 = LINE ( 'NONE', #133, #282 ) ;
#282 = VECTOR ( 'NONE', #63, 39.37007874015748100 ) ;
#283 = LINE ( 'NONE', #62, #252 ) ;
#284 = ORIENTED_EDGE ( 'NONE', *, *, #340, .F. ) ;
#285 = VECTOR ( 'NONE', #26, 39.37007874015748100 ) ;
#286 = CIRCLE ( 'NONE', #386, 0.06424999999999997400 ) ;
#287 = ORIENTED_EDGE ( 'NONE', *, *, #365, .T. ) ;
#288 = ORIENTED_EDGE ( 'NONE', *, *, #349, .F. ) ;
#289 = ORIENTED_EDGE ( 'NONE', *, *, #364, .F. ) ;
#290 = ORIENTED_EDGE ( 'NONE', *, *, #346, .F. ) ;
#291 = ORIENTED_EDGE ( 'NONE', *, *, #355, .T. ) ;
#292 = ORIENTED_EDGE ( 'NONE', *, *, #365, .F. ) ;
#293 = ORIENTED_EDGE ( 'NONE', *, *, #350, .F. ) ;
#294 = ORIENTED_EDGE ( 'NONE', *, *, #335, .T. ) ;
#295 = ORIENTED_EDGE ( 'NONE', *, *, #343, .F. ) ;
#296 = ORIENTED_EDGE ( 'NONE', *, *, #335, .F. ) ;
#297 = EDGE_LOOP ( 'NONE', ( #182, #306, #200, #313 ) ) ;
#298 = ORIENTED_EDGE ( 'NONE', *, *, #361, .T. ) ;
#299 = EDGE_LOOP ( 'NONE', ( #309, #301 ) ) ;
#300 = ORIENTED_EDGE ( 'NONE', *, *, #361, .F. ) ;
#301 = ORIENTED_EDGE ( 'NONE', *, *, #351, .T. ) ;
#302 = ORIENTED_EDGE ( 'NONE', *, *, #356, .T. ) ;
#303 = ORIENTED_EDGE ( 'NONE', *, *, #363, .T. ) ;
#304 = ORIENTED_EDGE ( 'NONE', *, *, #352, .T. ) ;
#305 = EDGE_LOOP ( 'NONE', ( #324, #323, #322, #174 ) ) ;
#306 = ORIENTED_EDGE ( 'NONE', *, *, #345, .F. ) ;
#307 = ORIENTED_EDGE ( 'NONE', *, *, #366, .F. ) ;
#308 = EDGE_LOOP ( 'NONE', ( #189, #185, #178, #221 ) ) ;
#309 = ORIENTED_EDGE ( 'NONE', *, *, #368, .T. ) ;
#310 = EDGE_LOOP ( 'NONE', ( #321, #316, #300, #314 ) ) ;
#311 = EDGE_LOOP ( 'NONE', ( #284, #173, #184, #176 ) ) ;
#312 = ORIENTED_EDGE ( 'NONE', *, *, #369, .F. ) ;
#313 = ORIENTED_EDGE ( 'NONE', *, *, #337, .T. ) ;
#314 = ORIENTED_EDGE ( 'NONE', *, *, #331, .T. ) ;
#315 = EDGE_LOOP ( 'NONE', ( #304, #298, #302, #303 ) ) ;
#316 = ORIENTED_EDGE ( 'NONE', *, *, #344, .F. ) ;
#317 = ORIENTED_EDGE ( 'NONE', *, *, #368, .F. ) ;
#318 = ORIENTED_EDGE ( 'NONE', *, *, #367, .T. ) ;
#319 = VECTOR ( 'NONE', #121, 39.37007874015748100 ) ;
#320 = ORIENTED_EDGE ( 'NONE', *, *, #349, .T. ) ;
#321 = ORIENTED_EDGE ( 'NONE', *, *, #346, .T. ) ;
#322 = ORIENTED_EDGE ( 'NONE', *, *, #362, .T. ) ;
#323 = ORIENTED_EDGE ( 'NONE', *, *, #369, .T. ) ;
#324 = ORIENTED_EDGE ( 'NONE', *, *, #351, .F. ) ;
#325 = ORIENTED_EDGE ( 'NONE', *, *, #345, .T. ) ;
#326 = SECURITY_CLASSIFICATION ( '', '', #115 ) ;
#327 = AXIS2_PLACEMENT_3D ( 'NONE', #24, #14, #9 ) ;
#328 = APPROVAL ( #31, 'UNSPECIFIED' ) ;
#329 = CC_DESIGN_DATE_AND_TIME_ASSIGNMENT ( #214, #108, ( #326 ) ) ;
#330 = CC_DESIGN_SECURITY_CLASSIFICATION ( #326, ( #354 ) ) ;
#331 = EDGE_CURVE ( 'NONE', #87, #86, #180, .T. ) ;
#332 = AXIS2_PLACEMENT_3D ( 'NONE', #67, #55, #56 ) ;
#333 = CC_DESIGN_PERSON_AND_ORGANIZATION_ASSIGNMENT ( #224, #42, ( #354 ) ) ;
#334 = CC_DESIGN_PERSON_AND_ORGANIZATION_ASSIGNMENT ( #222, #122, ( #326 ) ) ;
#335 = EDGE_CURVE ( 'NONE', #90, #88, #255, .T. ) ;
#336 = CC_DESIGN_APPROVAL ( #360, ( #354 ) ) ;
#337 = EDGE_CURVE ( 'NONE', #104, #149, #254, .T. ) ;
#338 = CC_DESIGN_PERSON_AND_ORGANIZATION_ASSIGNMENT ( #245, #32, ( #374 ) ) ;
#339 = PRODUCT_RELATED_PRODUCT_CATEGORY ( 'detail', '', ( #374 ) ) ;
#340 = EDGE_CURVE ( 'NONE', #138, #137, #259, .T. ) ;
#341 = APPROVAL ( #107, 'UNSPECIFIED' ) ;
#342 = AXIS2_PLACEMENT_3D ( 'NONE', #3, #119, #112 ) ;
#343 = EDGE_CURVE ( 'NONE', #105, #86, #258, .T. ) ;
#344 = EDGE_CURVE ( 'NONE', #102, #150, #257, .T. ) ;
#345 = EDGE_CURVE ( 'NONE', #89, #105, #256, .T. ) ;
#346 = EDGE_CURVE ( 'NONE', #86, #150, #263, .T. ) ;
#347 = CC_DESIGN_DATE_AND_TIME_ASSIGNMENT ( #233, #38, ( #359 ) ) ;
#348 = EDGE_CURVE ( 'NONE', #149, #105, #265, .T. ) ;
#349 = EDGE_CURVE ( 'NONE', #95, #103, #269, .T. ) ;
#350 = EDGE_CURVE ( 'NONE', #138, #88, #268, .T. ) ;
#351 = EDGE_CURVE ( 'NONE', #142, #140, #273, .T. ) ;
#352 = EDGE_CURVE ( 'NONE', #89, #87, #272, .T. ) ;
#353 = CC_DESIGN_APPROVAL ( #328, ( #359 ) ) ;
#354 = PRODUCT_DEFINITION_FORMATION_WITH_SPECIFIED_SOURCE ( 'ANY', '', #374, .NOT_KNOWN. ) ;
#355 = EDGE_CURVE ( 'NONE', #137, #90, #271, .T. ) ;
#356 = EDGE_CURVE ( 'NONE', #102, #104, #275, .T. ) ;
#357 = CC_DESIGN_PERSON_AND_ORGANIZATION_ASSIGNMENT ( #223, #144, ( #354 ) ) ;
#358 = AXIS2_PLACEMENT_3D ( 'NONE', #145, #48, #74 ) ;
#359 = PRODUCT_DEFINITION ( 'UNKNOWN', '', #354, #152 ) ;
#360 = APPROVAL ( #41, 'UNSPECIFIED' ) ;
#361 = EDGE_CURVE ( 'NONE', #87, #102, #277, .T. ) ;
#362 = EDGE_CURVE ( 'NONE', #103, #95, #280, .T. ) ;
#363 = EDGE_CURVE ( 'NONE', #104, #89, #279, .T. ) ;
#364 = EDGE_CURVE ( 'NONE', #150, #149, #281, .T. ) ;
#365 = EDGE_CURVE ( 'NONE', #137, #138, #286, .T. ) ;
#366 = EDGE_CURVE ( 'NONE', #88, #90, #251, .T. ) ;
#367 = EDGE_CURVE ( 'NONE', #140, #95, #270, .T. ) ;
#368 = EDGE_CURVE ( 'NONE', #140, #142, #250, .T. ) ;
#369 = EDGE_CURVE ( 'NONE', #142, #103, #283, .T. ) ;
#370 = CC_DESIGN_PERSON_AND_ORGANIZATION_ASSIGNMENT ( #237, #35, ( #359 ) ) ;
#371 = AXIS2_PLACEMENT_3D ( 'NONE', #79, #82, #83 ) ;
#372 = PERSON ( 'UNSPECIFIED', 'UNSPECIFIED', 'UNSPECIFIED', ('UNSPECIFIED'), ('UNSPECIFIED'), ('UNSPECIFIED') ) ;
#373 = AXIS2_PLACEMENT_3D ( 'NONE', #80, #78, #106 ) ;
#374 = PRODUCT ( 'D1000583-v2_aLIGO_SUS_HSTS_WIRE START CLAMP, TOP', 'D1000583-v2_aLIGO_SUS_HSTS_WIRE START CLAMP, TOP', '', ( #37 ) ) ;
#375 = AXIS2_PLACEMENT_3D ( 'NONE', #8, #57, #136 ) ;
#376 = AXIS2_PLACEMENT_3D ( 'NONE', #40, #77, #45 ) ;
#377 = AXIS2_PLACEMENT_3D ( 'NONE', #51, #75, #2 ) ;
#378 = AXIS2_PLACEMENT_3D ( 'NONE', #124, #76, #44 ) ;
#379 = AXIS2_PLACEMENT_3D ( 'NONE', #53, #47, #28 ) ;
#380 = AXIS2_PLACEMENT_3D ( 'NONE', #20, #70, #69 ) ;
#381 = AXIS2_PLACEMENT_3D ( 'NONE', #72, #130, #127 ) ;
#382 = AXIS2_PLACEMENT_3D ( 'NONE', #125, #131, #21 ) ;
#383 = AXIS2_PLACEMENT_3D ( 'NONE', #68, #126, #128 ) ;
#384 = AXIS2_PLACEMENT_3D ( 'NONE', #113, #109, #110 ) ;
#385 = AXIS2_PLACEMENT_3D ( 'NONE', #118, #54, #46 ) ;
#386 = AXIS2_PLACEMENT_3D ( 'NONE', #135, #141, #27 ) ;
#387 = AXIS2_PLACEMENT_3D ( 'NONE', #17, #25, #6 ) ;
#388 = CC_DESIGN_APPROVAL ( #341, ( #326 ) ) ;
ENDSEC;
END-ISO-10303-21;
