ISO-10303-21;
HEADER;
FILE_DESCRIPTION (( 'STEP AP203' ),
    '1' );
FILE_NAME ('D020680-v2_aLIGO_SUS_HSTS_Upper Blade Clamp, Lower Side, Shim 2mm.STEP',
    '2010-06-24T14:49:39',
    ( 'Dwayne Giardina' ),
    ( 'CA Institute of Technology' ),
    'SwSTEP 2.0',
    'SolidWorks 2009',
    '' );
FILE_SCHEMA (( 'CONFIG_CONTROL_DESIGN' ));
ENDSEC;

DATA;
#1 = PRODUCT_DEFINITION_SHAPE ( 'NONE', 'NONE',  #54 ) ;
#2 = DESIGN_CONTEXT ( 'detailed design', #177, 'design' ) ;
#3 = AXIS2_PLACEMENT_3D ( 'NONE', #71, #85, #86 ) ;
#4 = EDGE_CURVE ( 'NONE', #134, #140, #346, .T. ) ;
#5 = EDGE_CURVE ( 'NONE', #125, #140, #367, .T. ) ;
#6 = EDGE_CURVE ( 'NONE', #137, #139, #355, .T. ) ;
#7 = EDGE_CURVE ( 'NONE', #136, #126, #357, .T. ) ;
#8 = CC_DESIGN_PERSON_AND_ORGANIZATION_ASSIGNMENT ( #221, #178, ( #266 ) ) ;
#9 = EDGE_CURVE ( 'NONE', #133, #132, #284, .T. ) ;
#10 = AXIS2_PLACEMENT_3D ( 'NONE', #159, #155, #163 ) ;
#11 = AXIS2_PLACEMENT_3D ( 'NONE', #145, #144, #146 ) ;
#12 = EDGE_CURVE ( 'NONE', #133, #139, #347, .T. ) ;
#13 = AXIS2_PLACEMENT_3D ( 'NONE', #89, #88, #87 ) ;
#14 = EDGE_CURVE ( 'NONE', #126, #127, #271, .T. ) ;
#15 = CC_DESIGN_SECURITY_CLASSIFICATION ( #241, ( #50 ) ) ;
#16 = EDGE_CURVE ( 'NONE', #134, #138, #339, .T. ) ;
#17 = EDGE_CURVE ( 'NONE', #131, #129, #352, .T. ) ;
#18 = EDGE_CURVE ( 'NONE', #132, #134, #291, .T. ) ;
#19 = EDGE_CURVE ( 'NONE', #127, #126, #318, .T. ) ;
#20 = EDGE_CURVE ( 'NONE', #139, #125, #299, .T. ) ;
#21 = EDGE_CURVE ( 'NONE', #130, #127, #301, .T. ) ;
#22 = EDGE_CURVE ( 'NONE', #129, #135, #343, .T. ) ;
#23 = AXIS2_PLACEMENT_3D ( 'NONE', #151, #152, #153 ) ;
#24 = EDGE_CURVE ( 'NONE', #140, #137, #340, .T. ) ;
#25 = AXIS2_PLACEMENT_3D ( 'NONE', #79, #78, #192 ) ;
#26 = EDGE_CURVE ( 'NONE', #132, #125, #344, .T. ) ;
#27 = EDGE_CURVE ( 'NONE', #135, #129, #356, .T. ) ;
#28 = EDGE_CURVE ( 'NONE', #128, #131, #317, .T. ) ;
#29 = CC_DESIGN_APPROVAL ( #51, ( #54 ) ) ;
#30 = EDGE_CURVE ( 'NONE', #138, #137, #358, .T. ) ;
#31 = AXIS2_PLACEMENT_3D ( 'NONE', #103, #102, #101 ) ;
#32 = AXIS2_PLACEMENT_3D ( 'NONE', #112, #111, #110 ) ;
#33 = AXIS2_PLACEMENT_3D ( 'NONE', #190, #212, #189 ) ;
#34 = AXIS2_PLACEMENT_3D ( 'NONE', #142, #80, #173 ) ;
#35 = AXIS2_PLACEMENT_3D ( 'NONE', #154, #143, #157 ) ;
#36 = EDGE_CURVE ( 'NONE', #128, #135, #316, .T. ) ;
#37 = EDGE_CURVE ( 'NONE', #131, #128, #360, .T. ) ;
#38 = EDGE_CURVE ( 'NONE', #130, #136, #287, .T. ) ;
#39 = EDGE_CURVE ( 'NONE', #138, #133, #353, .T. ) ;
#40 = EDGE_CURVE ( 'NONE', #136, #130, #324, .T. ) ;
#41 = AXIS2_PLACEMENT_3D ( 'NONE', #96, #95, #94 ) ;
#42 = CC_DESIGN_DATE_AND_TIME_ASSIGNMENT ( #248, #208, ( #241 ) ) ;
#43 = PRODUCT_RELATED_PRODUCT_CATEGORY ( 'detail', '', ( #266 ) ) ;
#44 = CC_DESIGN_APPROVAL ( #62, ( #241 ) ) ;
#45 = AXIS2_PLACEMENT_3D ( 'NONE', #75, #74, #73 ) ;
#46 = AXIS2_PLACEMENT_3D ( 'NONE', #175, #161, #165 ) ;
#47 = CC_DESIGN_PERSON_AND_ORGANIZATION_ASSIGNMENT ( #240, #206, ( #241 ) ) ;
#48 = APPROVAL ( #170, 'UNSPECIFIED' ) ;
#49 = CC_DESIGN_DATE_AND_TIME_ASSIGNMENT ( #233, #168, ( #54 ) ) ;
#50 = PRODUCT_DEFINITION_FORMATION_WITH_SPECIFIED_SOURCE ( 'ANY', '', #266, .NOT_KNOWN. ) ;
#51 = APPROVAL ( #186, 'UNSPECIFIED' ) ;
#52 = CC_DESIGN_PERSON_AND_ORGANIZATION_ASSIGNMENT ( #242, #182, ( #50 ) ) ;
#53 = CC_DESIGN_APPROVAL ( #48, ( #50 ) ) ;
#54 = PRODUCT_DEFINITION ( 'UNKNOWN', '', #50, #2 ) ;
#55 = CC_DESIGN_PERSON_AND_ORGANIZATION_ASSIGNMENT ( #237, #179, ( #50 ) ) ;
#56 = AXIS2_PLACEMENT_3D ( 'NONE', #213, #67, #66 ) ;
#57 = AXIS2_PLACEMENT_3D ( 'NONE', #70, #82, #84 ) ;
#58 = AXIS2_PLACEMENT_3D ( 'NONE', #199, #69, #68 ) ;
#59 = AXIS2_PLACEMENT_3D ( 'NONE', #185, #187, #188 ) ;
#60 = CC_DESIGN_PERSON_AND_ORGANIZATION_ASSIGNMENT ( #225, #172, ( #54 ) ) ;
#61 = AXIS2_PLACEMENT_3D ( 'NONE', #160, #211, #210 ) ;
#62 = APPROVAL ( #209, 'UNSPECIFIED' ) ;
#63 = DIMENSIONAL_EXPONENTS ( 1.000000000000000000, 0.0000000000000000000, 0.0000000000000000000, 0.0000000000000000000, 0.0000000000000000000, 0.0000000000000000000, 0.0000000000000000000 ) ;
#64 =( CONVERSION_BASED_UNIT ( 'INCH', #251 ) LENGTH_UNIT ( ) NAMED_UNIT ( #63 ) );
#65 =( LENGTH_UNIT ( ) NAMED_UNIT ( * ) SI_UNIT ( $, .METRE. ) );
#66 = DIRECTION ( 'NONE',  ( 1.000000000000000000, 0.0000000000000000000, 0.0000000000000000000 ) ) ;
#67 = DIRECTION ( 'NONE',  ( 0.0000000000000000000, 0.0000000000000000000, 1.000000000000000000 ) ) ;
#68 = DIRECTION ( 'NONE',  ( 0.0000000000000000000, 0.0000000000000000000, 1.000000000000000000 ) ) ;
#69 = DIRECTION ( 'NONE',  ( -0.0000000000000000000, 1.000000000000000000, -0.0000000000000000000 ) ) ;
#70 = CARTESIAN_POINT ( 'NONE',  ( 0.3929999999999999600, 0.07900000000000004200, -0.3935000000000001300 ) ) ;
#71 = CARTESIAN_POINT ( 'NONE',  ( -0.7850000000000001400, -3.490128108393776100E-017, -0.7869999999999999200 ) ) ;
#72 = PLANE ( 'NONE',  #3 ) ;
#73 = DIRECTION ( 'NONE',  ( -0.0000000000000000000, 0.0000000000000000000, -1.000000000000000000 ) ) ;
#74 = DIRECTION ( 'NONE',  ( 1.000000000000000000, 0.0000000000000000000, -0.0000000000000000000 ) ) ;
#75 = CARTESIAN_POINT ( 'NONE',  ( 0.7850000000000001400, 0.07900000000000002900, -0.7869999999999999200 ) ) ;
#76 = PLANE ( 'NONE',  #45 ) ;
#77 = PLANE ( 'NONE',  #25 ) ;
#78 = DIRECTION ( 'NONE',  ( 0.0000000000000000000, 0.0000000000000000000, -1.000000000000000000 ) ) ;
#79 = CARTESIAN_POINT ( 'NONE',  ( -0.7850000000000001400, -3.490128108393776100E-017, 0.0000000000000000000 ) ) ;
#80 = DIRECTION ( 'NONE',  ( 1.087519105758066300E-017, 1.000000000000000000, -0.0000000000000000000 ) ) ;
#81 =( NAMED_UNIT ( * ) SI_UNIT ( $, .STERADIAN. ) SOLID_ANGLE_UNIT ( ) );
#82 = DIRECTION ( 'NONE',  ( -0.0000000000000000000, 1.000000000000000000, -0.0000000000000000000 ) ) ;
#83 =( NAMED_UNIT ( * ) PLANE_ANGLE_UNIT ( ) SI_UNIT ( $, .RADIAN. ) );
#84 = DIRECTION ( 'NONE',  ( 0.0000000000000000000, 0.0000000000000000000, 1.000000000000000000 ) ) ;
#85 = DIRECTION ( 'NONE',  ( 0.0000000000000000000, 0.0000000000000000000, -1.000000000000000000 ) ) ;
#86 = DIRECTION ( 'NONE',  ( -1.000000000000000000, 0.0000000000000000000, 0.0000000000000000000 ) ) ;
#87 = DIRECTION ( 'NONE',  ( 0.0000000000000000000, 0.0000000000000000000, 1.000000000000000000 ) ) ;
#88 = DIRECTION ( 'NONE',  ( -0.0000000000000000000, 1.000000000000000000, -0.0000000000000000000 ) ) ;
#89 = CARTESIAN_POINT ( 'NONE',  ( -0.3940000000000000200, 0.07900000000000004200, -0.3935000000000001300 ) ) ;
#90 = DIRECTION ( 'NONE',  ( 0.0000000000000000000, 0.0000000000000000000, 1.000000000000000000 ) ) ;
#91 = CARTESIAN_POINT ( 'NONE',  ( 0.7850000000000001400, 0.07900000000000002900, -0.7869999999999999200 ) ) ;
#92 = DIRECTION ( 'NONE',  ( -0.0000000000000000000, -1.000000000000000000, -0.0000000000000000000 ) ) ;
#93 = CARTESIAN_POINT ( 'NONE',  ( -0.7850000000000001400, -9.613159877505663000E-017, 0.0000000000000000000 ) ) ;
#94 = DIRECTION ( 'NONE',  ( 0.0000000000000000000, 0.0000000000000000000, 1.000000000000000000 ) ) ;
#95 = DIRECTION ( 'NONE',  ( -0.0000000000000000000, 1.000000000000000000, -0.0000000000000000000 ) ) ;
#96 = CARTESIAN_POINT ( 'NONE',  ( -0.3940000000000000200, 0.07900000000000004200, -0.3935000000000001300 ) ) ;
#97 = DIRECTION ( 'NONE',  ( -0.0000000000000000000, 1.000000000000000000, -0.0000000000000000000 ) ) ;
#98 = CARTESIAN_POINT ( 'NONE',  ( 0.3929999999999999600, 0.07900000000000004200, -0.5220000000000001300 ) ) ;
#99 = DIRECTION ( 'NONE',  ( -0.0000000000000000000, 1.000000000000000000, -0.0000000000000000000 ) ) ;
#100 = CARTESIAN_POINT ( 'NONE',  ( 0.7850000000000001400, 0.07900000000000002900, 0.0000000000000000000 ) ) ;
#101 = DIRECTION ( 'NONE',  ( 0.0000000000000000000, 0.0000000000000000000, 1.000000000000000000 ) ) ;
#102 = DIRECTION ( 'NONE',  ( -0.0000000000000000000, 1.000000000000000000, -0.0000000000000000000 ) ) ;
#103 = CARTESIAN_POINT ( 'NONE',  ( 0.3929999999999999600, 0.07900000000000004200, -0.3935000000000001300 ) ) ;
#104 = DIRECTION ( 'NONE',  ( -1.000000000000000000, 1.087519105758066500E-017, -0.0000000000000000000 ) ) ;
#105 = CARTESIAN_POINT ( 'NONE',  ( -0.7850000000000001400, 0.07900000000000004200, -0.7869999999999999200 ) ) ;
#106 = DIRECTION ( 'NONE',  ( -0.0000000000000000000, 1.000000000000000000, -0.0000000000000000000 ) ) ;
#107 = CARTESIAN_POINT ( 'NONE',  ( -0.3940000000000000200, 0.07900000000000004200, -0.2650000000000001200 ) ) ;
#108 = DIRECTION ( 'NONE',  ( -0.0000000000000000000, -1.000000000000000000, -0.0000000000000000000 ) ) ;
#109 = CARTESIAN_POINT ( 'NONE',  ( -0.7850000000000001400, -9.613159877505663000E-017, -0.7869999999999999200 ) ) ;
#110 = DIRECTION ( 'NONE',  ( 0.0000000000000000000, 0.0000000000000000000, 1.000000000000000000 ) ) ;
#111 = DIRECTION ( 'NONE',  ( -0.0000000000000000000, 1.000000000000000000, -0.0000000000000000000 ) ) ;
#112 = CARTESIAN_POINT ( 'NONE',  ( 0.3929999999999999600, 0.07900000000000004200, -0.3935000000000001300 ) ) ;
#113 = DIRECTION ( 'NONE',  ( 0.0000000000000000000, 0.0000000000000000000, 1.000000000000000000 ) ) ;
#114 = CARTESIAN_POINT ( 'NONE',  ( 0.7850000000000001400, 3.490128108393776100E-017, -0.7869999999999999200 ) ) ;
#115 = DIRECTION ( 'NONE',  ( -0.0000000000000000000, 1.000000000000000000, -0.0000000000000000000 ) ) ;
#116 = CARTESIAN_POINT ( 'NONE',  ( 0.7850000000000001400, 0.07900000000000002900, -0.7869999999999999200 ) ) ;
#117 = DIRECTION ( 'NONE',  ( -0.0000000000000000000, 1.000000000000000000, -0.0000000000000000000 ) ) ;
#118 = CARTESIAN_POINT ( 'NONE',  ( 0.3929999999999999600, 0.07900000000000004200, -0.2650000000000001200 ) ) ;
#119 = DIRECTION ( 'NONE',  ( 1.000000000000000000, 1.224606353822377300E-016, -0.0000000000000000000 ) ) ;
#120 = CARTESIAN_POINT ( 'NONE',  ( 0.0000000000000000000, 0.0000000000000000000, 0.0000000000000000000 ) ) ;
#121 = DIRECTION ( 'NONE',  ( -1.000000000000000000, 1.087519105758066500E-017, -0.0000000000000000000 ) ) ;
#122 = CARTESIAN_POINT ( 'NONE',  ( -0.7850000000000001400, 0.07900000000000004200, 0.0000000000000000000 ) ) ;
#123 = DIRECTION ( 'NONE',  ( 0.0000000000000000000, 0.0000000000000000000, 1.000000000000000000 ) ) ;
#124 = CARTESIAN_POINT ( 'NONE',  ( -0.7850000000000001400, 0.07900000000000004200, -0.7869999999999999200 ) ) ;
#125 = VERTEX_POINT ( 'NONE', #164 ) ;
#126 = VERTEX_POINT ( 'NONE', #162 ) ;
#127 = VERTEX_POINT ( 'NONE', #194 ) ;
#128 = VERTEX_POINT ( 'NONE', #195 ) ;
#129 = VERTEX_POINT ( 'NONE', #196 ) ;
#130 = VERTEX_POINT ( 'NONE', #197 ) ;
#131 = VERTEX_POINT ( 'NONE', #204 ) ;
#132 = VERTEX_POINT ( 'NONE', #205 ) ;
#133 = VERTEX_POINT ( 'NONE', #198 ) ;
#134 = VERTEX_POINT ( 'NONE', #193 ) ;
#135 = VERTEX_POINT ( 'NONE', #202 ) ;
#136 = VERTEX_POINT ( 'NONE', #203 ) ;
#137 = VERTEX_POINT ( 'NONE', #200 ) ;
#138 = VERTEX_POINT ( 'NONE', #201 ) ;
#139 = VERTEX_POINT ( 'NONE', #183 ) ;
#140 = VERTEX_POINT ( 'NONE', #184 ) ;
#141 = PLANE ( 'NONE',  #34 ) ;
#142 = CARTESIAN_POINT ( 'NONE',  ( -0.7850000000000001400, 0.07900000000000004200, -0.7869999999999999200 ) ) ;
#143 = DIRECTION ( 'NONE',  ( -0.0000000000000000000, 1.000000000000000000, -0.0000000000000000000 ) ) ;
#144 = DIRECTION ( 'NONE',  ( -0.0000000000000000000, 1.000000000000000000, -0.0000000000000000000 ) ) ;
#145 = CARTESIAN_POINT ( 'NONE',  ( -0.3940000000000000200, -8.537024980200822600E-017, -0.3935000000000001300 ) ) ;
#146 = DIRECTION ( 'NONE',  ( 0.0000000000000000000, 0.0000000000000000000, 1.000000000000000000 ) ) ;
#147 = DIRECTION ( 'NONE',  ( 0.0000000000000000000, 0.0000000000000000000, 1.000000000000000000 ) ) ;
#148 = CARTESIAN_POINT ( 'NONE',  ( -0.3940000000000000200, 0.07900000000000004200, -0.5220000000000001300 ) ) ;
#149 = DIRECTION ( 'NONE',  ( -0.0000000000000000000, 1.000000000000000000, -0.0000000000000000000 ) ) ;
#150 = CARTESIAN_POINT ( 'NONE',  ( -0.7850000000000001400, -9.613159877505663000E-017, -0.7869999999999999200 ) ) ;
#151 = CARTESIAN_POINT ( 'NONE',  ( -0.3940000000000000200, -8.537024980200822600E-017, -0.3935000000000001300 ) ) ;
#152 = DIRECTION ( 'NONE',  ( -0.0000000000000000000, 1.000000000000000000, -0.0000000000000000000 ) ) ;
#153 = DIRECTION ( 'NONE',  ( 0.0000000000000000000, 0.0000000000000000000, 1.000000000000000000 ) ) ;
#154 = CARTESIAN_POINT ( 'NONE',  ( 0.3929999999999999600, -8.537024980200822600E-017, -0.3935000000000001300 ) ) ;
#155 = DIRECTION ( 'NONE',  ( -0.0000000000000000000, 1.000000000000000000, -0.0000000000000000000 ) ) ;
#156 = CARTESIAN_POINT ( 'NONE',  ( 0.7850000000000001400, 3.490128108393776100E-017, -0.7869999999999999200 ) ) ;
#157 = DIRECTION ( 'NONE',  ( 0.0000000000000000000, 0.0000000000000000000, 1.000000000000000000 ) ) ;
#158 = DIRECTION ( 'NONE',  ( 1.000000000000000000, 4.446023068017548400E-017, -0.0000000000000000000 ) ) ;
#159 = CARTESIAN_POINT ( 'NONE',  ( 0.3929999999999999600, -8.537024980200822600E-017, -0.3935000000000001300 ) ) ;
#160 = CARTESIAN_POINT ( 'NONE',  ( -0.7850000000000001400, -9.613159877505663000E-017, -0.7869999999999999200 ) ) ;
#161 = DIRECTION ( 'NONE',  ( -0.0000000000000000000, 1.000000000000000000, -0.0000000000000000000 ) ) ;
#162 = CARTESIAN_POINT ( 'NONE',  ( 0.3929999999999999600, 0.07900000000000004200, -0.2650000000000001200 ) ) ;
#163 = DIRECTION ( 'NONE',  ( 0.0000000000000000000, 0.0000000000000000000, 1.000000000000000000 ) ) ;
#164 = CARTESIAN_POINT ( 'NONE',  ( 0.7850000000000001400, 0.07900000000000002900, 0.0000000000000000000 ) ) ;
#165 = DIRECTION ( 'NONE',  ( 0.0000000000000000000, 0.0000000000000000000, 1.000000000000000000 ) ) ;
#166 = MECHANICAL_CONTEXT ( 'NONE', #167, 'mechanical' ) ;
#167 = APPLICATION_CONTEXT ( 'configuration controlled 3d designs of mechanical parts and assemblies' ) ;
#168 = DATE_TIME_ROLE ( 'creation_date' ) ;
#169 = APPLICATION_PROTOCOL_DEFINITION ( 'international standard', 'config_control_design', 1994, #167 ) ;
#170 = APPROVAL_STATUS ( 'not_yet_approved' ) ;
#171 = APPROVAL_ROLE ( '' ) ;
#172 = PERSON_AND_ORGANIZATION_ROLE ( 'creator' ) ;
#173 = DIRECTION ( 'NONE',  ( -1.000000000000000000, 1.087519105758066300E-017, 0.0000000000000000000 ) ) ;
#174 = PLANE ( 'NONE',  #61 ) ;
#175 = CARTESIAN_POINT ( 'NONE',  ( 0.3929999999999999600, 0.07900000000000004200, -0.3935000000000001300 ) ) ;
#176 = APPLICATION_PROTOCOL_DEFINITION ( 'international standard', 'config_control_design', 1994, #177 ) ;
#177 = APPLICATION_CONTEXT ( 'configuration controlled 3d designs of mechanical parts and assemblies' ) ;
#178 = PERSON_AND_ORGANIZATION_ROLE ( 'design_owner' ) ;
#179 = PERSON_AND_ORGANIZATION_ROLE ( 'creator' ) ;
#180 = APPROVAL_ROLE ( '' ) ;
#181 = SECURITY_CLASSIFICATION_LEVEL ( 'unclassified' ) ;
#182 = PERSON_AND_ORGANIZATION_ROLE ( 'design_supplier' ) ;
#183 = CARTESIAN_POINT ( 'NONE',  ( 0.7850000000000001400, 3.490128108393776100E-017, 0.0000000000000000000 ) ) ;
#184 = CARTESIAN_POINT ( 'NONE',  ( -0.7850000000000001400, 0.07900000000000004200, 0.0000000000000000000 ) ) ;
#185 = CARTESIAN_POINT ( 'NONE',  ( 0.0000000000000000000, 0.0000000000000000000, -0.7869999999999999200 ) ) ;
#186 = APPROVAL_STATUS ( 'not_yet_approved' ) ;
#187 = DIRECTION ( 'NONE',  ( 1.224606353822377300E-016, -1.000000000000000000, 0.0000000000000000000 ) ) ;
#188 = DIRECTION ( 'NONE',  ( 1.000000000000000000, 1.224606353822377300E-016, 0.0000000000000000000 ) ) ;
#189 = DIRECTION ( 'NONE',  ( 0.0000000000000000000, 0.0000000000000000000, 1.000000000000000000 ) ) ;
#190 = CARTESIAN_POINT ( 'NONE',  ( -0.3940000000000000200, 0.07900000000000004200, -0.3935000000000001300 ) ) ;
#191 = PLANE ( 'NONE',  #59 ) ;
#192 = DIRECTION ( 'NONE',  ( -1.000000000000000000, 0.0000000000000000000, 0.0000000000000000000 ) ) ;
#193 = CARTESIAN_POINT ( 'NONE',  ( -0.7850000000000001400, 0.07900000000000004200, -0.7869999999999999200 ) ) ;
#194 = CARTESIAN_POINT ( 'NONE',  ( 0.3929999999999999600, 0.07900000000000004200, -0.5220000000000001300 ) ) ;
#195 = CARTESIAN_POINT ( 'NONE',  ( -0.3940000000000000200, -8.537024980200822600E-017, -0.5220000000000001300 ) ) ;
#196 = CARTESIAN_POINT ( 'NONE',  ( -0.3940000000000000200, 0.07900000000000004200, -0.2650000000000001200 ) ) ;
#197 = CARTESIAN_POINT ( 'NONE',  ( 0.3929999999999999600, -8.537024980200822600E-017, -0.5220000000000001300 ) ) ;
#198 = CARTESIAN_POINT ( 'NONE',  ( 0.7850000000000001400, 3.490128108393776100E-017, -0.7869999999999999200 ) ) ;
#199 = CARTESIAN_POINT ( 'NONE',  ( -0.3940000000000000200, 0.07900000000000004200, -0.3935000000000001300 ) ) ;
#200 = CARTESIAN_POINT ( 'NONE',  ( -0.7850000000000001400, -9.613159877505663000E-017, 0.0000000000000000000 ) ) ;
#201 = CARTESIAN_POINT ( 'NONE',  ( -0.7850000000000001400, -9.613159877505663000E-017, -0.7869999999999999200 ) ) ;
#202 = CARTESIAN_POINT ( 'NONE',  ( -0.3940000000000000200, 0.07900000000000004200, -0.5220000000000001300 ) ) ;
#203 = CARTESIAN_POINT ( 'NONE',  ( 0.3929999999999999600, -8.537024980200822600E-017, -0.2650000000000001200 ) ) ;
#204 = CARTESIAN_POINT ( 'NONE',  ( -0.3940000000000000200, -8.537024980200822600E-017, -0.2650000000000001200 ) ) ;
#205 = CARTESIAN_POINT ( 'NONE',  ( 0.7850000000000001400, 0.07900000000000002900, -0.7869999999999999200 ) ) ;
#206 = PERSON_AND_ORGANIZATION_ROLE ( 'classification_officer' ) ;
#207 = APPROVAL_ROLE ( '' ) ;
#208 = DATE_TIME_ROLE ( 'classification_date' ) ;
#209 = APPROVAL_STATUS ( 'not_yet_approved' ) ;
#210 = DIRECTION ( 'NONE',  ( 0.0000000000000000000, 0.0000000000000000000, 1.000000000000000000 ) ) ;
#211 = DIRECTION ( 'NONE',  ( -1.000000000000000000, 0.0000000000000000000, 0.0000000000000000000 ) ) ;
#212 = DIRECTION ( 'NONE',  ( -0.0000000000000000000, 1.000000000000000000, -0.0000000000000000000 ) ) ;
#213 = CARTESIAN_POINT ( 'NONE',  ( 0.0000000000000000000, 0.0000000000000000000, 0.0000000000000000000 ) ) ;
#214 = DATE_AND_TIME ( #215, #252 ) ;
#215 = CALENDAR_DATE ( 2010, 24, 6 ) ;
#216 = ORGANIZATION ( 'UNSPECIFIED', 'UNSPECIFIED', '' ) ;
#217 = SHAPE_DEFINITION_REPRESENTATION ( #1, #255 ) ;
#218 =( GEOMETRIC_REPRESENTATION_CONTEXT ( 3 ) GLOBAL_UNCERTAINTY_ASSIGNED_CONTEXT ( ( #254 ) ) GLOBAL_UNIT_ASSIGNED_CONTEXT ( ( #64, #83, #81 ) ) REPRESENTATION_CONTEXT ( 'NONE', 'WORKASPACE' ) );
#219 = APPROVAL_PERSON_ORGANIZATION ( #220, #51, #171 ) ;
#220 = PERSON_AND_ORGANIZATION ( #267, #216 ) ;
#221 = PERSON_AND_ORGANIZATION ( #267, #216 ) ;
#222 = CALENDAR_DATE ( 2010, 24, 6 ) ;
#223 = LOCAL_TIME ( 9, 49, 39.00000000000000000, #224 ) ;
#224 = COORDINATED_UNIVERSAL_TIME_OFFSET ( 6, 0, .BEHIND. ) ;
#225 = PERSON_AND_ORGANIZATION ( #267, #216 ) ;
#226 = APPROVAL_DATE_TIME ( #227, #51 ) ;
#227 = DATE_AND_TIME ( #222, #223 ) ;
#228 = CALENDAR_DATE ( 2010, 24, 6 ) ;
#229 = LOCAL_TIME ( 9, 49, 39.00000000000000000, #230 ) ;
#230 = COORDINATED_UNIVERSAL_TIME_OFFSET ( 6, 0, .BEHIND. ) ;
#231 = APPROVAL_PERSON_ORGANIZATION ( #232, #48, #180 ) ;
#232 = PERSON_AND_ORGANIZATION ( #267, #216 ) ;
#233 = DATE_AND_TIME ( #228, #229 ) ;
#234 = CALENDAR_DATE ( 2010, 24, 6 ) ;
#235 = LOCAL_TIME ( 9, 49, 39.00000000000000000, #236 ) ;
#236 = COORDINATED_UNIVERSAL_TIME_OFFSET ( 6, 0, .BEHIND. ) ;
#237 = PERSON_AND_ORGANIZATION ( #267, #216 ) ;
#238 = APPROVAL_DATE_TIME ( #239, #48 ) ;
#239 = DATE_AND_TIME ( #234, #235 ) ;
#240 = PERSON_AND_ORGANIZATION ( #267, #216 ) ;
#241 = SECURITY_CLASSIFICATION ( '', '', #181 ) ;
#242 = PERSON_AND_ORGANIZATION ( #267, #216 ) ;
#243 = CALENDAR_DATE ( 2010, 24, 6 ) ;
#244 = LOCAL_TIME ( 9, 49, 39.00000000000000000, #245 ) ;
#245 = COORDINATED_UNIVERSAL_TIME_OFFSET ( 6, 0, .BEHIND. ) ;
#246 = APPROVAL_PERSON_ORGANIZATION ( #247, #62, #207 ) ;
#247 = PERSON_AND_ORGANIZATION ( #267, #216 ) ;
#248 = DATE_AND_TIME ( #243, #244 ) ;
#249 = APPROVAL_DATE_TIME ( #214, #62 ) ;
#250 = COORDINATED_UNIVERSAL_TIME_OFFSET ( 6, 0, .BEHIND. ) ;
#251 = LENGTH_MEASURE_WITH_UNIT ( LENGTH_MEASURE( 0.02539999999999999900 ), #65 );
#252 = LOCAL_TIME ( 9, 49, 39.00000000000000000, #250 ) ;
#253 = MANIFOLD_SOLID_BREP ( 'NONE', #286 ) ;
#254 = UNCERTAINTY_MEASURE_WITH_UNIT (LENGTH_MEASURE( 1.000000000000000100E-005 ), #64, 'distance_accuracy_value', 'NONE');
#255 = ADVANCED_BREP_SHAPE_REPRESENTATION ( 'D020680-v2_aLIGO_SUS_HSTS_Upper Blade Clamp, Lower Side, Shim 2mm', ( #253, #56 ), #218 ) ;
#256 = ADVANCED_FACE ( 'NONE', ( #328, #322, #321 ), #191, .T. ) ;
#257 = ADVANCED_FACE ( 'NONE', ( #326 ), #320, .F. ) ;
#258 = ADVANCED_FACE ( 'NONE', ( #325 ), #77, .F. ) ;
#259 = ADVANCED_FACE ( 'NONE', ( #323 ), #76, .T. ) ;
#260 = ADVANCED_FACE ( 'NONE', ( #327 ), #72, .T. ) ;
#261 = ADVANCED_FACE ( 'NONE', ( #329 ), #334, .F. ) ;
#262 = ADVANCED_FACE ( 'NONE', ( #336, #330, #333 ), #141, .T. ) ;
#263 = ADVANCED_FACE ( 'NONE', ( #335 ), #174, .T. ) ;
#264 = ADVANCED_FACE ( 'NONE', ( #331 ), #332, .F. ) ;
#265 = ADVANCED_FACE ( 'NONE', ( #294 ), #307, .F. ) ;
#266 = PRODUCT ( 'D020680-v2_aLIGO_SUS_HSTS_Upper Blade Clamp, Lower Side, Shim 2mm', 'D020680-v2_aLIGO_SUS_HSTS_Upper Blade Clamp, Lower Side, Shim 2mm', '', ( #166 ) ) ;
#267 = PERSON ( 'UNSPECIFIED', 'UNSPECIFIED', 'UNSPECIFIED', ('UNSPECIFIED'), ('UNSPECIFIED'), ('UNSPECIFIED') ) ;
#268 = ORIENTED_EDGE ( 'NONE', *, *, #4, .T. ) ;
#269 = ORIENTED_EDGE ( 'NONE', *, *, #27, .T. ) ;
#270 = ORIENTED_EDGE ( 'NONE', *, *, #26, .F. ) ;
#271 = CIRCLE ( 'NONE', #32, 0.1285000000000000000 ) ;
#272 = EDGE_LOOP ( 'NONE', ( #368, #371 ) ) ;
#273 = EDGE_LOOP ( 'NONE', ( #366, #345, #277, #288 ) ) ;
#274 = ORIENTED_EDGE ( 'NONE', *, *, #5, .T. ) ;
#275 = EDGE_LOOP ( 'NONE', ( #372, #365, #361, #351 ) ) ;
#276 = EDGE_LOOP ( 'NONE', ( #382, #270, #363, #268 ) ) ;
#277 = ORIENTED_EDGE ( 'NONE', *, *, #18, .F. ) ;
#278 = VECTOR ( 'NONE', #92, 39.37007874015748100 ) ;
#279 = ORIENTED_EDGE ( 'NONE', *, *, #7, .F. ) ;
#280 = ORIENTED_EDGE ( 'NONE', *, *, #37, .T. ) ;
#281 = ORIENTED_EDGE ( 'NONE', *, *, #17, .T. ) ;
#282 = EDGE_LOOP ( 'NONE', ( #295, #311 ) ) ;
#283 = VECTOR ( 'NONE', #158, 39.37007874015748100 ) ;
#284 = LINE ( 'NONE', #116, #378 ) ;
#285 = ORIENTED_EDGE ( 'NONE', *, *, #38, .F. ) ;
#286 = CLOSED_SHELL ( 'NONE', ( #264, #265, #256, #263, #262, #259, #260, #258, #261, #257 ) ) ;
#287 = CIRCLE ( 'NONE', #35, 0.1285000000000000000 ) ;
#288 = ORIENTED_EDGE ( 'NONE', *, *, #9, .F. ) ;
#289 = EDGE_LOOP ( 'NONE', ( #386, #375 ) ) ;
#290 = VECTOR ( 'NONE', #149, 39.37007874015748100 ) ;
#291 = LINE ( 'NONE', #105, #359 ) ;
#292 = ORIENTED_EDGE ( 'NONE', *, *, #14, .T. ) ;
#293 = ORIENTED_EDGE ( 'NONE', *, *, #30, .T. ) ;
#294 = FACE_OUTER_BOUND ( 'NONE', #383, .T. ) ;
#295 = ORIENTED_EDGE ( 'NONE', *, *, #22, .F. ) ;
#296 = VECTOR ( 'NONE', #117, 39.37007874015748100 ) ;
#297 = ORIENTED_EDGE ( 'NONE', *, *, #40, .F. ) ;
#298 = ORIENTED_EDGE ( 'NONE', *, *, #16, .T. ) ;
#299 = LINE ( 'NONE', #100, #302 ) ;
#300 = ORIENTED_EDGE ( 'NONE', *, *, #21, .F. ) ;
#301 = LINE ( 'NONE', #98, #304 ) ;
#302 = VECTOR ( 'NONE', #99, 39.37007874015748100 ) ;
#303 = VECTOR ( 'NONE', #90, 39.37007874015748100 ) ;
#304 = VECTOR ( 'NONE', #97, 39.37007874015748100 ) ;
#305 = EDGE_LOOP ( 'NONE', ( #280, #312 ) ) ;
#306 = EDGE_LOOP ( 'NONE', ( #373, #369, #298, #293 ) ) ;
#307 = CYLINDRICAL_SURFACE ( 'NONE', #57, 0.1285000000000000000 ) ;
#308 = ORIENTED_EDGE ( 'NONE', *, *, #7, .T. ) ;
#309 = ORIENTED_EDGE ( 'NONE', *, *, #28, .F. ) ;
#310 = ORIENTED_EDGE ( 'NONE', *, *, #20, .T. ) ;
#311 = ORIENTED_EDGE ( 'NONE', *, *, #27, .F. ) ;
#312 = ORIENTED_EDGE ( 'NONE', *, *, #28, .T. ) ;
#313 = VECTOR ( 'NONE', #121, 39.37007874015748100 ) ;
#314 = ORIENTED_EDGE ( 'NONE', *, *, #36, .F. ) ;
#315 = EDGE_LOOP ( 'NONE', ( #309, #319, #269, #377 ) ) ;
#316 = LINE ( 'NONE', #148, #290 ) ;
#317 = CIRCLE ( 'NONE', #11, 0.1285000000000000000 ) ;
#318 = CIRCLE ( 'NONE', #31, 0.1285000000000000000 ) ;
#319 = ORIENTED_EDGE ( 'NONE', *, *, #36, .T. ) ;
#320 = CYLINDRICAL_SURFACE ( 'NONE', #33, 0.1285000000000000000 ) ;
#321 = FACE_OUTER_BOUND ( 'NONE', #388, .T. ) ;
#322 = FACE_BOUND ( 'NONE', #289, .T. ) ;
#323 = FACE_OUTER_BOUND ( 'NONE', #275, .T. ) ;
#324 = CIRCLE ( 'NONE', #10, 0.1285000000000000000 ) ;
#325 = FACE_OUTER_BOUND ( 'NONE', #349, .T. ) ;
#326 = FACE_OUTER_BOUND ( 'NONE', #354, .T. ) ;
#327 = FACE_OUTER_BOUND ( 'NONE', #273, .T. ) ;
#328 = FACE_BOUND ( 'NONE', #305, .T. ) ;
#329 = FACE_OUTER_BOUND ( 'NONE', #350, .T. ) ;
#330 = FACE_BOUND ( 'NONE', #272, .T. ) ;
#331 = FACE_OUTER_BOUND ( 'NONE', #315, .T. ) ;
#332 = CYLINDRICAL_SURFACE ( 'NONE', #58, 0.1285000000000000000 ) ;
#333 = FACE_OUTER_BOUND ( 'NONE', #276, .T. ) ;
#334 = CYLINDRICAL_SURFACE ( 'NONE', #46, 0.1285000000000000000 ) ;
#335 = FACE_OUTER_BOUND ( 'NONE', #306, .T. ) ;
#336 = FACE_BOUND ( 'NONE', #282, .T. ) ;
#337 = VECTOR ( 'NONE', #108, 39.37007874015748100 ) ;
#338 = VECTOR ( 'NONE', #106, 39.37007874015748100 ) ;
#339 = LINE ( 'NONE', #109, #337 ) ;
#340 = LINE ( 'NONE', #93, #278 ) ;
#341 = VECTOR ( 'NONE', #123, 39.37007874015748100 ) ;
#342 = VECTOR ( 'NONE', #147, 39.37007874015748100 ) ;
#343 = CIRCLE ( 'NONE', #41, 0.1285000000000000000 ) ;
#344 = LINE ( 'NONE', #91, #303 ) ;
#345 = ORIENTED_EDGE ( 'NONE', *, *, #16, .F. ) ;
#346 = LINE ( 'NONE', #124, #341 ) ;
#347 = LINE ( 'NONE', #114, #362 ) ;
#348 = ORIENTED_EDGE ( 'NONE', *, *, #19, .T. ) ;
#349 = EDGE_LOOP ( 'NONE', ( #381, #310, #274, #376 ) ) ;
#350 = EDGE_LOOP ( 'NONE', ( #300, #297, #308, #292 ) ) ;
#351 = ORIENTED_EDGE ( 'NONE', *, *, #26, .T. ) ;
#352 = LINE ( 'NONE', #107, #338 ) ;
#353 = LINE ( 'NONE', #156, #283 ) ;
#354 = EDGE_LOOP ( 'NONE', ( #314, #387, #281, #370 ) ) ;
#355 = LINE ( 'NONE', #120, #374 ) ;
#356 = CIRCLE ( 'NONE', #13, 0.1285000000000000000 ) ;
#357 = LINE ( 'NONE', #118, #296 ) ;
#358 = LINE ( 'NONE', #150, #342 ) ;
#359 = VECTOR ( 'NONE', #104, 39.37007874015748100 ) ;
#360 = CIRCLE ( 'NONE', #23, 0.1285000000000000000 ) ;
#361 = ORIENTED_EDGE ( 'NONE', *, *, #9, .T. ) ;
#362 = VECTOR ( 'NONE', #113, 39.37007874015748100 ) ;
#363 = ORIENTED_EDGE ( 'NONE', *, *, #18, .T. ) ;
#364 = ORIENTED_EDGE ( 'NONE', *, *, #6, .F. ) ;
#365 = ORIENTED_EDGE ( 'NONE', *, *, #12, .F. ) ;
#366 = ORIENTED_EDGE ( 'NONE', *, *, #39, .F. ) ;
#367 = LINE ( 'NONE', #122, #313 ) ;
#368 = ORIENTED_EDGE ( 'NONE', *, *, #14, .F. ) ;
#369 = ORIENTED_EDGE ( 'NONE', *, *, #4, .F. ) ;
#370 = ORIENTED_EDGE ( 'NONE', *, *, #22, .T. ) ;
#371 = ORIENTED_EDGE ( 'NONE', *, *, #19, .F. ) ;
#372 = ORIENTED_EDGE ( 'NONE', *, *, #20, .F. ) ;
#373 = ORIENTED_EDGE ( 'NONE', *, *, #24, .F. ) ;
#374 = VECTOR ( 'NONE', #119, 39.37007874015748100 ) ;
#375 = ORIENTED_EDGE ( 'NONE', *, *, #38, .T. ) ;
#376 = ORIENTED_EDGE ( 'NONE', *, *, #24, .T. ) ;
#377 = ORIENTED_EDGE ( 'NONE', *, *, #17, .F. ) ;
#378 = VECTOR ( 'NONE', #115, 39.37007874015748100 ) ;
#379 = ORIENTED_EDGE ( 'NONE', *, *, #12, .T. ) ;
#380 = ORIENTED_EDGE ( 'NONE', *, *, #30, .F. ) ;
#381 = ORIENTED_EDGE ( 'NONE', *, *, #6, .T. ) ;
#382 = ORIENTED_EDGE ( 'NONE', *, *, #5, .F. ) ;
#383 = EDGE_LOOP ( 'NONE', ( #285, #385, #348, #279 ) ) ;
#384 = ORIENTED_EDGE ( 'NONE', *, *, #39, .T. ) ;
#385 = ORIENTED_EDGE ( 'NONE', *, *, #21, .T. ) ;
#386 = ORIENTED_EDGE ( 'NONE', *, *, #40, .T. ) ;
#387 = ORIENTED_EDGE ( 'NONE', *, *, #37, .F. ) ;
#388 = EDGE_LOOP ( 'NONE', ( #364, #380, #384, #379 ) ) ;
ENDSEC;
END-ISO-10303-21;
