ISO-10303-21;
HEADER;
FILE_DESCRIPTION (( 'STEP AP203' ),
    '1' );
FILE_NAME ('D020333-v2_aLIGO_SUS_HSTS_Lower Blade Clamp, Lower Side, Angled 0.5.STEP',
    '2010-06-24T17:22:30',
    ( 'Dwayne Giardina' ),
    ( 'CA Institute of Technology' ),
    'SwSTEP 2.0',
    'SolidWorks 2009',
    '' );
FILE_SCHEMA (( 'CONFIG_CONTROL_DESIGN' ));
ENDSEC;

DATA;
#1 = CARTESIAN_POINT ( 'NONE',  ( 0.3543307086614173000, 0.1970000000000000100, -0.3937007900000000200 ) ) ;
#2 = VERTEX_POINT ( 'NONE', #5 ) ;
#3 = CARTESIAN_POINT ( 'NONE',  ( 0.1969999999999999800, 0.1945403288660637900, -0.1118503950000000500 ) ) ;
#4 = DIRECTION ( 'NONE',  ( 1.000000000000000000, 1.224606353822377500E-016, 0.0000000000000000000 ) ) ;
#5 = CARTESIAN_POINT ( 'NONE',  ( 0.1969999999999999800, 0.0000000000000000000, -0.2818503949999999800 ) ) ;
#6 = DIRECTION ( 'NONE',  ( 0.0000000000000000000, 0.008726535498366777200, -0.9999619230641714200 ) ) ;
#7 = DIRECTION ( 'NONE',  ( 0.0000000000000000000, -0.9999619230641714200, -0.008726535498366777200 ) ) ;
#8 = DIRECTION ( 'NONE',  ( -0.0000000000000000000, -1.000000000000000000, -0.0000000000000000000 ) ) ;
#9 = DIRECTION ( 'NONE',  ( -1.000000000000000000, 4.818676322157797600E-017, -0.0000000000000000000 ) ) ;
#10 = CARTESIAN_POINT ( 'NONE',  ( 0.1969999999999999800, 0.1960238963904915600, -0.2818503949999999800 ) ) ;
#11 = CARTESIAN_POINT ( 'NONE',  ( -0.1970000000000000400, 0.1960238963904915600, -0.2818503949999999800 ) ) ;
#12 = CARTESIAN_POINT ( 'NONE',  ( -0.3669999999999999400, 0.1960238963904915600, -0.2818503949999999800 ) ) ;
#13 = DIRECTION ( 'NONE',  ( 1.000000000000000000, 1.224606353822377300E-016, -0.0000000000000000000 ) ) ;
#14 = CARTESIAN_POINT ( 'NONE',  ( 0.3669999999999999400, 0.1960238963904915600, -0.2818503950000000900 ) ) ;
#15 = CARTESIAN_POINT ( 'NONE',  ( 0.1969999999999999800, 0.0000000000000000000, -0.1968503950000000100 ) ) ;
#16 = CARTESIAN_POINT ( 'NONE',  ( -0.02700000000000007900, 0.1960238963904915600, -0.2818503949999999800 ) ) ;
#17 = CARTESIAN_POINT ( 'NONE',  ( -0.1970000000000000400, -0.8029999999999998300, -0.2818503949999999800 ) ) ;
#18 = CARTESIAN_POINT ( 'NONE',  ( 0.3543307086614173000, 0.1970000000000000100, -0.3937007900000000200 ) ) ;
#19 = DIRECTION ( 'NONE',  ( -0.0000000000000000000, 1.000000000000000000, -0.0000000000000000000 ) ) ;
#20 = DIRECTION ( 'NONE',  ( -0.0000000000000000000, 0.008726535498366777200, -0.9999619230641714200 ) ) ;
#21 = DIRECTION ( 'NONE',  ( 1.000000000000000000, -0.0000000000000000000, -0.0000000000000000000 ) ) ;
#22 = DIRECTION ( 'NONE',  ( 1.224606353822377500E-016, -1.000000000000000000, 0.0000000000000000000 ) ) ;
#23 = CARTESIAN_POINT ( 'NONE',  ( -0.1970000000000000400, 0.0000000000000000000, -0.1968503949999999800 ) ) ;
#24 = VERTEX_POINT ( 'NONE', #26 ) ;
#25 = VERTEX_POINT ( 'NONE', #35 ) ;
#26 = CARTESIAN_POINT ( 'NONE',  ( -0.3543307086614173000, 0.1970000000000000100, -0.3937007900000000200 ) ) ;
#27 = VERTEX_POINT ( 'NONE', #34 ) ;
#28 = VERTEX_POINT ( 'NONE', #41 ) ;
#29 = VERTEX_POINT ( 'NONE', #45 ) ;
#30 = VERTEX_POINT ( 'NONE', #31 ) ;
#31 = CARTESIAN_POINT ( 'NONE',  ( 0.1969999999999999800, 0.1960238963904915600, -0.2818503949999999800 ) ) ;
#32 = CARTESIAN_POINT ( 'NONE',  ( 0.3543307086614173000, 0.1935642252565555300, 0.0000000000000000000 ) ) ;
#33 = CARTESIAN_POINT ( 'NONE',  ( 0.1969999999999999800, 0.0000000000000000000, -0.1118503950000000500 ) ) ;
#34 = CARTESIAN_POINT ( 'NONE',  ( -0.1970000000000000400, 0.0000000000000000000, -0.2818503949999999800 ) ) ;
#35 = CARTESIAN_POINT ( 'NONE',  ( -0.3543307086614173000, -4.339156371811573000E-017, 0.0000000000000000000 ) ) ;
#36 = DIRECTION ( 'NONE',  ( 0.0000000000000000000, 0.0000000000000000000, 1.000000000000000000 ) ) ;
#37 = CARTESIAN_POINT ( 'NONE',  ( -0.3543307086614173000, 0.1935642252565555300, 0.0000000000000000000 ) ) ;
#38 = CARTESIAN_POINT ( 'NONE',  ( -0.3543307086614173000, -4.339156371811573000E-017, -0.3937007900000000200 ) ) ;
#39 = CARTESIAN_POINT ( 'NONE',  ( -0.1970000000000000400, 0.1960238963904915600, -0.2818503949999999800 ) ) ;
#40 = CARTESIAN_POINT ( 'NONE',  ( -0.3543307086614173000, 0.1970000000000000400, -0.3937007900000000200 ) ) ;
#41 = CARTESIAN_POINT ( 'NONE',  ( -0.1970000000000000400, 0.0000000000000000000, -0.1118503950000000100 ) ) ;
#42 = VERTEX_POINT ( 'NONE', #3 ) ;
#43 = VERTEX_POINT ( 'NONE', #32 ) ;
#44 = CARTESIAN_POINT ( 'NONE',  ( 0.3543307086614173000, -2.073152488754191300E-020, -0.3937007900000000200 ) ) ;
#45 = CARTESIAN_POINT ( 'NONE',  ( 0.3543307086614173000, -2.073152488754191300E-020, 0.0000000000000000000 ) ) ;
#46 = CARTESIAN_POINT ( 'NONE',  ( -0.1970000000000000400, 0.1945403288660637900, -0.1118503950000000100 ) ) ;
#47 = VERTEX_POINT ( 'NONE', #37 ) ;
#48 = DIRECTION ( 'NONE',  ( 1.000000000000000000, -5.850897023817385100E-020, -0.0000000000000000000 ) ) ;
#49 = CARTESIAN_POINT ( 'NONE',  ( -0.3543307086614173000, -4.339156371811573000E-017, -0.3937007900000000200 ) ) ;
#50 = CARTESIAN_POINT ( 'NONE',  ( -0.3543307086614173000, -4.339156371811573000E-017, 0.0000000000000000000 ) ) ;
#51 = CARTESIAN_POINT ( 'NONE',  ( 0.1969999999999999800, -0.8029999999999998300, -0.1118503950000000500 ) ) ;
#52 = APPLICATION_CONTEXT ( 'configuration controlled 3d designs of mechanical parts and assemblies' ) ;
#53 = CARTESIAN_POINT ( 'NONE',  ( 0.1969999999999999800, -0.8029999999999998300, -0.1968503950000000100 ) ) ;
#54 = VERTEX_POINT ( 'NONE', #38 ) ;
#55 = APPLICATION_PROTOCOL_DEFINITION ( 'international standard', 'config_control_design', 1994, #52 ) ;
#56 = CARTESIAN_POINT ( 'NONE',  ( 0.3543307086614173000, -2.073152488754191300E-020, -0.3937007900000000200 ) ) ;
#57 = CARTESIAN_POINT ( 'NONE',  ( -0.6656692913385826600, 0.1935642252565555300, 0.0000000000000000000 ) ) ;
#58 = CARTESIAN_POINT ( 'NONE',  ( 0.3543307086614173000, 0.1970000000000000100, 0.0000000000000000000 ) ) ;
#59 = CARTESIAN_POINT ( 'NONE',  ( 0.0000000000000000000, 0.0000000000000000000, 0.0000000000000000000 ) ) ;
#60 = DIRECTION ( 'NONE',  ( -0.0000000000000000000, 1.000000000000000000, -0.0000000000000000000 ) ) ;
#61 = DIRECTION ( 'NONE',  ( -0.0000000000000000000, 1.000000000000000000, -0.0000000000000000000 ) ) ;
#62 = PERSON_AND_ORGANIZATION_ROLE ( 'design_owner' ) ;
#63 =( NAMED_UNIT ( * ) PLANE_ANGLE_UNIT ( ) SI_UNIT ( $, .RADIAN. ) );
#64 = MECHANICAL_CONTEXT ( 'NONE', #52, 'mechanical' ) ;
#65 =( LENGTH_UNIT ( ) NAMED_UNIT ( * ) SI_UNIT ( $, .METRE. ) );
#66 =( NAMED_UNIT ( * ) SI_UNIT ( $, .STERADIAN. ) SOLID_ANGLE_UNIT ( ) );
#67 = DIRECTION ( 'NONE',  ( 1.224606353822377500E-016, -1.000000000000000000, 0.0000000000000000000 ) ) ;
#68 = DIRECTION ( 'NONE',  ( 1.000000000000000000, 1.224606353822377500E-016, 0.0000000000000000000 ) ) ;
#69 = DIRECTION ( 'NONE',  ( 0.0000000000000000000, -0.008726535498366777200, 0.9999619230641712000 ) ) ;
#70 = VERTEX_POINT ( 'NONE', #33 ) ;
#71 = CARTESIAN_POINT ( 'NONE',  ( -0.1970000000000000400, 0.1945403288660637900, -0.1118503950000000100 ) ) ;
#72 = CARTESIAN_POINT ( 'NONE',  ( -0.02700000000000007900, 0.1945403288660638200, -0.1118503949999999800 ) ) ;
#73 = CARTESIAN_POINT ( 'NONE',  ( 0.02700000000000001700, 0.1960238963904915600, -0.2818503950000000900 ) ) ;
#74 = DIRECTION ( 'NONE',  ( 1.224606353822377500E-016, -1.000000000000000000, 0.0000000000000000000 ) ) ;
#75 = CARTESIAN_POINT ( 'NONE',  ( 0.1969999999999999800, 0.1960238963904915600, -0.2818503949999999800 ) ) ;
#76 = DIRECTION ( 'NONE',  ( 0.0000000000000000000, 0.0000000000000000000, 1.000000000000000000 ) ) ;
#77 = CARTESIAN_POINT ( 'NONE',  ( 0.3543307086614173000, -2.073152488754191300E-020, -0.3937007900000000200 ) ) ;
#78 = CARTESIAN_POINT ( 'NONE',  ( -0.3543307086614173000, 0.1969849979729045900, -0.3919817279659290100 ) ) ;
#79 = CARTESIAN_POINT ( 'NONE',  ( 0.02700000000000001700, 0.1945403288660638200, -0.1118503950000000600 ) ) ;
#80 = CARTESIAN_POINT ( 'NONE',  ( 0.1969999999999999800, 0.0000000000000000000, -0.1968503950000000100 ) ) ;
#81 = CARTESIAN_POINT ( 'NONE',  ( 0.1969999999999999800, 0.1945403288660637900, -0.1118503950000000500 ) ) ;
#82 = CARTESIAN_POINT ( 'NONE',  ( -0.1970000000000000400, 0.1960238963904915600, -0.2818503949999999800 ) ) ;
#83 = CARTESIAN_POINT ( 'NONE',  ( -0.3669999999999999400, 0.1945403288660638200, -0.1118503950000000200 ) ) ;
#84 = DIRECTION ( 'NONE',  ( -0.0000000000000000000, 1.000000000000000000, -0.0000000000000000000 ) ) ;
#85 = CARTESIAN_POINT ( 'NONE',  ( 0.1969999999999999800, 0.1945403288660637900, -0.1118503950000000500 ) ) ;
#86 = CARTESIAN_POINT ( 'NONE',  ( 0.3669999999999999400, 0.1945403288660638200, -0.1118503950000000200 ) ) ;
#87 = CARTESIAN_POINT ( 'NONE',  ( -0.3543307086614173000, -4.339156371811573000E-017, -0.3937007900000000200 ) ) ;
#88 = DIRECTION ( 'NONE',  ( -0.0000000000000000000, 1.000000000000000000, -0.0000000000000000000 ) ) ;
#89 = CARTESIAN_POINT ( 'NONE',  ( 0.3543307086614173000, 0.1970000000000000100, -0.3937007900000000200 ) ) ;
#90 = DIRECTION ( 'NONE',  ( 1.000000000000000000, 1.224606353822377500E-016, 0.0000000000000000000 ) ) ;
#91 = DIRECTION ( 'NONE',  ( -0.0000000000000000000, -1.000000000000000000, -0.0000000000000000000 ) ) ;
#92 = CARTESIAN_POINT ( 'NONE',  ( -0.3543307086614173000, -4.339156371811573000E-017, -0.3937007900000000200 ) ) ;
#93 = CARTESIAN_POINT ( 'NONE',  ( -0.1970000000000000400, 0.1945403288660637900, -0.1118503950000000100 ) ) ;
#94 = DATE_TIME_ROLE ( 'classification_date' ) ;
#95 = DIRECTION ( 'NONE',  ( 0.0000000000000000000, 0.0000000000000000000, -1.000000000000000000 ) ) ;
#96 = APPROVAL_ROLE ( '' ) ;
#97 = PERSON_AND_ORGANIZATION_ROLE ( 'creator' ) ;
#98 = DIRECTION ( 'NONE',  ( 0.0000000000000000000, 0.0000000000000000000, 1.000000000000000000 ) ) ;
#99 = PERSON_AND_ORGANIZATION_ROLE ( 'classification_officer' ) ;
#100 = APPROVAL_STATUS ( 'not_yet_approved' ) ;
#101 = PLANE ( 'NONE',  #163 ) ;
#102 = VERTEX_POINT ( 'NONE', #44 ) ;
#103 = APPLICATION_CONTEXT ( 'configuration controlled 3d designs of mechanical parts and assemblies' ) ;
#104 = APPLICATION_PROTOCOL_DEFINITION ( 'international standard', 'config_control_design', 1994, #103 ) ;
#105 = DIRECTION ( 'NONE',  ( 0.0000000000000000000, 0.0000000000000000000, 1.000000000000000000 ) ) ;
#106 = DIRECTION ( 'NONE',  ( 0.0000000000000000000, 0.0000000000000000000, 1.000000000000000000 ) ) ;
#107 = APPROVAL_STATUS ( 'not_yet_approved' ) ;
#108 = APPROVAL_ROLE ( '' ) ;
#109 = SECURITY_CLASSIFICATION_LEVEL ( 'unclassified' ) ;
#110 = DIRECTION ( 'NONE',  ( -0.0000000000000000000, 1.000000000000000000, -0.0000000000000000000 ) ) ;
#111 = CARTESIAN_POINT ( 'NONE',  ( -0.1970000000000000400, -0.8029999999999998300, -0.1968503949999999800 ) ) ;
#112 = CARTESIAN_POINT ( 'NONE',  ( -0.1970000000000000400, -0.8029999999999998300, -0.1118503950000000100 ) ) ;
#113 = CARTESIAN_POINT ( 'NONE',  ( 0.3543307086614173000, 0.1970000000000000100, -0.3937007900000000200 ) ) ;
#114 = PLANE ( 'NONE',  #169 ) ;
#115 = DIRECTION ( 'NONE',  ( 1.000000000000000000, 0.0000000000000000000, 0.0000000000000000000 ) ) ;
#116 = DIRECTION ( 'NONE',  ( -0.0000000000000000000, 0.0000000000000000000, -1.000000000000000000 ) ) ;
#117 = DIRECTION ( 'NONE',  ( 0.0000000000000000000, 0.0000000000000000000, 1.000000000000000000 ) ) ;
#118 = CARTESIAN_POINT ( 'NONE',  ( -0.3543307086614173000, 2.073152488754191300E-020, 0.0000000000000000000 ) ) ;
#119 = DIRECTION ( 'NONE',  ( 0.0000000000000000000, 0.0000000000000000000, 1.000000000000000000 ) ) ;
#120 = APPROVAL_ROLE ( '' ) ;
#121 = CARTESIAN_POINT ( 'NONE',  ( 0.1969999999999999800, -0.8029999999999998300, -0.1968503950000000100 ) ) ;
#122 = PERSON_AND_ORGANIZATION_ROLE ( 'creator' ) ;
#123 = PERSON_AND_ORGANIZATION_ROLE ( 'design_supplier' ) ;
#124 = VERTEX_POINT ( 'NONE', #39 ) ;
#125 = VERTEX_POINT ( 'NONE', #93 ) ;
#126 = PLANE ( 'NONE',  #204 ) ;
#127 = CARTESIAN_POINT ( 'NONE',  ( -0.3543307086614173000, 2.073152488754191300E-020, -0.3937007900000000200 ) ) ;
#128 = DIRECTION ( 'NONE',  ( -0.0000000000000000000, 1.000000000000000000, -0.0000000000000000000 ) ) ;
#129 = DIRECTION ( 'NONE',  ( -0.0000000000000000000, 1.000000000000000000, -0.0000000000000000000 ) ) ;
#130 = CARTESIAN_POINT ( 'NONE',  ( 0.0000000000000000000, 0.0000000000000000000, 0.0000000000000000000 ) ) ;
#131 =( CONVERSION_BASED_UNIT ( 'INCH', #238 ) LENGTH_UNIT ( ) NAMED_UNIT ( #376 ) );
#132 = CARTESIAN_POINT ( 'NONE',  ( 0.1969999999999999800, -0.8029999999999998300, -0.2818503949999999800 ) ) ;
#133 = VERTEX_POINT ( 'NONE', #1 ) ;
#134 = DIRECTION ( 'NONE',  ( 1.000000000000000000, 0.0000000000000000000, -0.0000000000000000000 ) ) ;
#135 = DIRECTION ( 'NONE',  ( 0.0000000000000000000, 0.0000000000000000000, 1.000000000000000000 ) ) ;
#136 = DIRECTION ( 'NONE',  ( -0.0000000000000000000, 1.000000000000000000, -0.0000000000000000000 ) ) ;
#137 = CARTESIAN_POINT ( 'NONE',  ( -0.1970000000000000400, -0.8029999999999998300, -0.1968503949999999800 ) ) ;
#138 = PLANE ( 'NONE',  #167 ) ;
#139 = DIRECTION ( 'NONE',  ( -1.000000000000000000, 0.0000000000000000000, -0.0000000000000000000 ) ) ;
#140 = PLANE ( 'NONE',  #173 ) ;
#141 = DIRECTION ( 'NONE',  ( -1.000000000000000000, 0.0000000000000000000, 0.0000000000000000000 ) ) ;
#142 = DIRECTION ( 'NONE',  ( 1.224606353822377500E-016, -1.000000000000000000, 0.0000000000000000000 ) ) ;
#143 = DIRECTION ( 'NONE',  ( 0.0000000000000000000, 0.0000000000000000000, -1.000000000000000000 ) ) ;
#144 = DIRECTION ( 'NONE',  ( 1.000000000000000000, 1.224606353822377500E-016, 0.0000000000000000000 ) ) ;
#145 = DIRECTION ( 'NONE',  ( 1.224606353822377500E-016, -1.000000000000000000, 0.0000000000000000000 ) ) ;
#146 = DIRECTION ( 'NONE',  ( -0.0000000000000000000, 1.000000000000000000, -0.0000000000000000000 ) ) ;
#147 = CARTESIAN_POINT ( 'NONE',  ( 0.0000000000000000000, 0.0000000000000000000, -0.3937007900000000200 ) ) ;
#148 = DIRECTION ( 'NONE',  ( -1.000000000000000000, 0.0000000000000000000, -0.0000000000000000000 ) ) ;
#149 = CARTESIAN_POINT ( 'NONE',  ( -0.1970000000000000400, 0.0000000000000000000, -0.1968503949999999800 ) ) ;
#150 = APPROVAL_STATUS ( 'not_yet_approved' ) ;
#151 = DATE_TIME_ROLE ( 'creation_date' ) ;
#152 = CARTESIAN_POINT ( 'NONE',  ( -0.6656692913385826600, 0.1970000000000000100, -0.3937007900000000200 ) ) ;
#153 = PLANE ( 'NONE',  #165 ) ;
#154 = DIRECTION ( 'NONE',  ( 1.000000000000000000, 1.224606353822377500E-016, 0.0000000000000000000 ) ) ;
#155 = EDGE_CURVE ( 'NONE', #25, #29, #236, .T. ) ;
#156 = EDGE_CURVE ( 'NONE', #27, #124, #310, .T. ) ;
#157 = CC_DESIGN_PERSON_AND_ORGANIZATION_ASSIGNMENT ( #353, #99, ( #347 ) ) ;
#158 = EDGE_CURVE ( 'NONE', #29, #43, #246, .T. ) ;
#159 = CC_DESIGN_PERSON_AND_ORGANIZATION_ASSIGNMENT ( #301, #123, ( #172 ) ) ;
#160 = CC_DESIGN_APPROVAL ( #200, ( #347 ) ) ;
#161 = PRODUCT_RELATED_PRODUCT_CATEGORY ( 'detail', '', ( #388 ) ) ;
#162 = AXIS2_PLACEMENT_3D ( 'NONE', #149, #145, #144 ) ;
#163 = AXIS2_PLACEMENT_3D ( 'NONE', #127, #95, #139 ) ;
#164 = AXIS2_PLACEMENT_3D ( 'NONE', #121, #129, #135 ) ;
#165 = AXIS2_PLACEMENT_3D ( 'NONE', #113, #134, #116 ) ;
#166 = CC_DESIGN_PERSON_AND_ORGANIZATION_ASSIGNMENT ( #267, #122, ( #172 ) ) ;
#167 = AXIS2_PLACEMENT_3D ( 'NONE', #92, #141, #117 ) ;
#168 = EDGE_CURVE ( 'NONE', #43, #133, #280, .T. ) ;
#169 = AXIS2_PLACEMENT_3D ( 'NONE', #152, #7, #6 ) ;
#170 = EDGE_CURVE ( 'NONE', #54, #25, #332, .T. ) ;
#171 = EDGE_CURVE ( 'NONE', #47, #25, #320, .T. ) ;
#172 = PRODUCT_DEFINITION_FORMATION_WITH_SPECIFIED_SOURCE ( 'ANY', '', #388, .NOT_KNOWN. ) ;
#173 = AXIS2_PLACEMENT_3D ( 'NONE', #118, #143, #148 ) ;
#174 = CC_DESIGN_APPROVAL ( #203, ( #172 ) ) ;
#175 = EDGE_CURVE ( 'NONE', #47, #43, #344, .T. ) ;
#176 = AXIS2_PLACEMENT_3D ( 'NONE', #80, #67, #90 ) ;
#177 = EDGE_CURVE ( 'NONE', #2, #70, #308, .T. ) ;
#178 = EDGE_CURVE ( 'NONE', #133, #24, #318, .T. ) ;
#179 = AXIS2_PLACEMENT_3D ( 'NONE', #15, #22, #4 ) ;
#180 = EDGE_CURVE ( 'NONE', #125, #124, #232, .T. ) ;
#181 = AXIS2_PLACEMENT_3D ( 'NONE', #23, #74, #68 ) ;
#182 = AXIS2_PLACEMENT_3D ( 'NONE', #137, #110, #119 ) ;
#183 = AXIS2_PLACEMENT_3D ( 'NONE', #53, #60, #106 ) ;
#184 = CC_DESIGN_APPROVAL ( #196, ( #201 ) ) ;
#185 = AXIS2_PLACEMENT_3D ( 'NONE', #111, #128, #98 ) ;
#186 = EDGE_CURVE ( 'NONE', #54, #102, #307, .T. ) ;
#187 = EDGE_CURVE ( 'NONE', #28, #27, #299, .T. ) ;
#188 = EDGE_CURVE ( 'NONE', #102, #29, #294, .T. ) ;
#189 = EDGE_CURVE ( 'NONE', #30, #42, #231, .T. ) ;
#190 = EDGE_CURVE ( 'NONE', #124, #125, #234, .T. ) ;
#191 = CC_DESIGN_SECURITY_CLASSIFICATION ( #347, ( #172 ) ) ;
#192 = EDGE_CURVE ( 'NONE', #24, #47, #292, .T. ) ;
#193 = EDGE_CURVE ( 'NONE', #70, #42, #343, .T. ) ;
#194 = EDGE_CURVE ( 'NONE', #70, #2, #276, .T. ) ;
#195 = CC_DESIGN_PERSON_AND_ORGANIZATION_ASSIGNMENT ( #268, #62, ( #388 ) ) ;
#196 = APPROVAL ( #100, 'UNSPECIFIED' ) ;
#197 = EDGE_CURVE ( 'NONE', #24, #54, #275, .T. ) ;
#198 = EDGE_CURVE ( 'NONE', #42, #30, #233, .T. ) ;
#199 = CC_DESIGN_DATE_AND_TIME_ASSIGNMENT ( #263, #94, ( #347 ) ) ;
#200 = APPROVAL ( #150, 'UNSPECIFIED' ) ;
#201 = PRODUCT_DEFINITION ( 'UNKNOWN', '', #172, #230 ) ;
#202 = EDGE_CURVE ( 'NONE', #27, #28, #328, .T. ) ;
#203 = APPROVAL ( #107, 'UNSPECIFIED' ) ;
#204 = AXIS2_PLACEMENT_3D ( 'NONE', #147, #142, #154 ) ;
#205 = EDGE_CURVE ( 'NONE', #102, #133, #284, .T. ) ;
#206 = CC_DESIGN_PERSON_AND_ORGANIZATION_ASSIGNMENT ( #350, #97, ( #201 ) ) ;
#207 = AXIS2_PLACEMENT_3D ( 'NONE', #130, #105, #115 ) ;
#208 = CC_DESIGN_DATE_AND_TIME_ASSIGNMENT ( #240, #151, ( #201 ) ) ;
#209 = EDGE_CURVE ( 'NONE', #2, #30, #329, .T. ) ;
#210 = EDGE_CURVE ( 'NONE', #28, #125, #323, .T. ) ;
#211 = EDGE_LOOP ( 'NONE', ( #291, #362 ) ) ;
#212 = CLOSED_SHELL ( 'NONE', ( #377, #383, #386, #380, #379, #378, #385, #381, #382, #384 ) ) ;
#213 = EDGE_LOOP ( 'NONE', ( #248, #228, #300, #239 ) ) ;
#214 = EDGE_LOOP ( 'NONE', ( #302, #295, #293, #271 ) ) ;
#215 = EDGE_LOOP ( 'NONE', ( #342, #244, #245, #345 ) ) ;
#216 = EDGE_LOOP ( 'NONE', ( #289, #339 ) ) ;
#217 = EDGE_LOOP ( 'NONE', ( #348, #355, #224, #279 ) ) ;
#218 = EDGE_LOOP ( 'NONE', ( #309, #312, #325, #334 ) ) ;
#219 = EDGE_LOOP ( 'NONE', ( #366, #357, #270, #229 ) ) ;
#220 = EDGE_LOOP ( 'NONE', ( #306, #364, #363, #227 ) ) ;
#221 = EDGE_LOOP ( 'NONE', ( #281, #288, #304, #274 ) ) ;
#222 = EDGE_LOOP ( 'NONE', ( #340, #264, #335, #354 ) ) ;
#223 = EDGE_LOOP ( 'NONE', ( #316, #314 ) ) ;
#224 = ORIENTED_EDGE ( 'NONE', *, *, #186, .T. ) ;
#225 = EDGE_LOOP ( 'NONE', ( #365, #317 ) ) ;
#226 = EDGE_LOOP ( 'NONE', ( #352, #369, #247, #258 ) ) ;
#227 = ORIENTED_EDGE ( 'NONE', *, *, #205, .F. ) ;
#228 = ORIENTED_EDGE ( 'NONE', *, *, #177, .T. ) ;
#229 = ORIENTED_EDGE ( 'NONE', *, *, #180, .T. ) ;
#230 = DESIGN_CONTEXT ( 'detailed design', #103, 'design' ) ;
#231 =( BOUNDED_CURVE ( )  B_SPLINE_CURVE ( 3, ( #10, #73, #79, #81 ),
 .UNSPECIFIED., .F., .T. ) 
 B_SPLINE_CURVE_WITH_KNOTS ( ( 4, 4 ),
 ( 0.0000000000000000000, 3.141592653589793100 ),
 .UNSPECIFIED. ) 
 CURVE ( )  GEOMETRIC_REPRESENTATION_ITEM ( )  RATIONAL_B_SPLINE_CURVE ( ( 1.000000000000000000, 0.3333333333333333700, 0.3333333333333333700, 1.000000000000000000 ) ) 
 REPRESENTATION_ITEM ( '' )  );
#232 =( BOUNDED_CURVE ( )  B_SPLINE_CURVE ( 3, ( #71, #72, #16, #11 ),
 .UNSPECIFIED., .F., .F. ) 
 B_SPLINE_CURVE_WITH_KNOTS ( ( 4, 4 ),
 ( 3.141592653589793100, 6.283185307179586200 ),
 .UNSPECIFIED. ) 
 CURVE ( )  GEOMETRIC_REPRESENTATION_ITEM ( )  RATIONAL_B_SPLINE_CURVE ( ( 1.000000000000000000, 0.3333333333333333700, 0.3333333333333333700, 1.000000000000000000 ) ) 
 REPRESENTATION_ITEM ( '' )  );
#233 =( BOUNDED_CURVE ( )  B_SPLINE_CURVE ( 3, ( #85, #86, #14, #75 ),
 .UNSPECIFIED., .F., .T. ) 
 B_SPLINE_CURVE_WITH_KNOTS ( ( 4, 4 ),
 ( 3.141592653589793100, 6.283185307179586200 ),
 .UNSPECIFIED. ) 
 CURVE ( )  GEOMETRIC_REPRESENTATION_ITEM ( )  RATIONAL_B_SPLINE_CURVE ( ( 1.000000000000000000, 0.3333333333333333700, 0.3333333333333333700, 1.000000000000000000 ) ) 
 REPRESENTATION_ITEM ( '' )  );
#234 =( BOUNDED_CURVE ( )  B_SPLINE_CURVE ( 3, ( #82, #12, #83, #46 ),
 .UNSPECIFIED., .F., .T. ) 
 B_SPLINE_CURVE_WITH_KNOTS ( ( 4, 4 ),
 ( 0.0000000000000000000, 3.141592653589793100 ),
 .UNSPECIFIED. ) 
 CURVE ( )  GEOMETRIC_REPRESENTATION_ITEM ( )  RATIONAL_B_SPLINE_CURVE ( ( 1.000000000000000000, 0.3333333333333333700, 0.3333333333333333700, 1.000000000000000000 ) ) 
 REPRESENTATION_ITEM ( '' )  );
#235 = PRODUCT_DEFINITION_SHAPE ( 'NONE', 'NONE',  #201 ) ;
#236 = LINE ( 'NONE', #59, #315 ) ;
#237 = SHAPE_DEFINITION_REPRESENTATION ( #235, #373 ) ;
#238 = LENGTH_MEASURE_WITH_UNIT ( LENGTH_MEASURE( 0.02539999999999999900 ), #65 );
#239 = ORIENTED_EDGE ( 'NONE', *, *, #198, .T. ) ;
#240 = DATE_AND_TIME ( #243, #265 ) ;
#241 = VECTOR ( 'NONE', #61, 39.37007874015748100 ) ;
#242 = VECTOR ( 'NONE', #20, 39.37007874015748900 ) ;
#243 = CALENDAR_DATE ( 2010, 24, 6 ) ;
#244 = ORIENTED_EDGE ( 'NONE', *, *, #197, .T. ) ;
#245 = ORIENTED_EDGE ( 'NONE', *, *, #170, .T. ) ;
#246 = LINE ( 'NONE', #58, #241 ) ;
#247 = ORIENTED_EDGE ( 'NONE', *, *, #188, .F. ) ;
#248 = ORIENTED_EDGE ( 'NONE', *, *, #209, .F. ) ;
#249 = FACE_OUTER_BOUND ( 'NONE', #217, .T. ) ;
#250 = VECTOR ( 'NONE', #84, 39.37007874015748100 ) ;
#251 = FACE_OUTER_BOUND ( 'NONE', #221, .T. ) ;
#252 = CYLINDRICAL_SURFACE ( 'NONE', #164, 0.08499999999999997800 ) ;
#253 = FACE_OUTER_BOUND ( 'NONE', #220, .T. ) ;
#254 = FACE_OUTER_BOUND ( 'NONE', #226, .T. ) ;
#255 = FACE_OUTER_BOUND ( 'NONE', #215, .T. ) ;
#256 = FACE_OUTER_BOUND ( 'NONE', #219, .T. ) ;
#257 = CYLINDRICAL_SURFACE ( 'NONE', #185, 0.08499999999999997800 ) ;
#258 = ORIENTED_EDGE ( 'NONE', *, *, #205, .T. ) ;
#259 = LOCAL_TIME ( 12, 22, 30.00000000000000000, #260 ) ;
#260 = COORDINATED_UNIVERSAL_TIME_OFFSET ( 6, 0, .BEHIND. ) ;
#261 = DATE_AND_TIME ( #370, #259 ) ;
#262 = APPROVAL_DATE_TIME ( #359, #196 ) ;
#263 = DATE_AND_TIME ( #305, #266 ) ;
#264 = ORIENTED_EDGE ( 'NONE', *, *, #175, .F. ) ;
#265 = LOCAL_TIME ( 12, 22, 30.00000000000000000, #372 ) ;
#266 = LOCAL_TIME ( 12, 22, 30.00000000000000000, #367 ) ;
#267 = PERSON_AND_ORGANIZATION ( #387, #269 ) ;
#268 = PERSON_AND_ORGANIZATION ( #387, #269 ) ;
#269 = ORGANIZATION ( 'UNSPECIFIED', 'UNSPECIFIED', '' ) ;
#270 = ORIENTED_EDGE ( 'NONE', *, *, #210, .T. ) ;
#271 = ORIENTED_EDGE ( 'NONE', *, *, #210, .F. ) ;
#272 = COORDINATED_UNIVERSAL_TIME_OFFSET ( 6, 0, .BEHIND. ) ;
#273 = VECTOR ( 'NONE', #21, 39.37007874015748100 ) ;
#274 = ORIENTED_EDGE ( 'NONE', *, *, #193, .F. ) ;
#275 = LINE ( 'NONE', #87, #278 ) ;
#276 = CIRCLE ( 'NONE', #176, 0.08499999999999997800 ) ;
#277 = VECTOR ( 'NONE', #36, 39.37007874015748100 ) ;
#278 = VECTOR ( 'NONE', #91, 39.37007874015748100 ) ;
#279 = ORIENTED_EDGE ( 'NONE', *, *, #188, .T. ) ;
#280 = LINE ( 'NONE', #18, #242 ) ;
#281 = ORIENTED_EDGE ( 'NONE', *, *, #194, .T. ) ;
#282 = FACE_BOUND ( 'NONE', #211, .T. ) ;
#283 = FACE_BOUND ( 'NONE', #225, .T. ) ;
#284 = LINE ( 'NONE', #89, #327 ) ;
#285 = FACE_BOUND ( 'NONE', #223, .T. ) ;
#286 =( GEOMETRIC_REPRESENTATION_CONTEXT ( 3 ) GLOBAL_UNCERTAINTY_ASSIGNED_CONTEXT ( ( #374 ) ) GLOBAL_UNIT_ASSIGNED_CONTEXT ( ( #131, #63, #66 ) ) REPRESENTATION_CONTEXT ( 'NONE', 'WORKASPACE' ) );
#287 = FACE_OUTER_BOUND ( 'NONE', #214, .T. ) ;
#288 = ORIENTED_EDGE ( 'NONE', *, *, #209, .T. ) ;
#289 = ORIENTED_EDGE ( 'NONE', *, *, #187, .F. ) ;
#290 = VECTOR ( 'NONE', #76, 39.37007874015748100 ) ;
#291 = ORIENTED_EDGE ( 'NONE', *, *, #198, .F. ) ;
#292 = LINE ( 'NONE', #78, #311 ) ;
#293 = ORIENTED_EDGE ( 'NONE', *, *, #190, .T. ) ;
#294 = LINE ( 'NONE', #77, #290 ) ;
#295 = ORIENTED_EDGE ( 'NONE', *, *, #156, .T. ) ;
#296 = LOCAL_TIME ( 12, 22, 30.00000000000000000, #272 ) ;
#297 = APPROVAL_PERSON_ORGANIZATION ( #371, #203, #108 ) ;
#298 = VECTOR ( 'NONE', #48, 39.37007874015748100 ) ;
#299 = CIRCLE ( 'NONE', #181, 0.08499999999999997800 ) ;
#300 = ORIENTED_EDGE ( 'NONE', *, *, #193, .T. ) ;
#301 = PERSON_AND_ORGANIZATION ( #387, #269 ) ;
#302 = ORIENTED_EDGE ( 'NONE', *, *, #187, .T. ) ;
#303 = APPROVAL_DATE_TIME ( #349, #200 ) ;
#304 = ORIENTED_EDGE ( 'NONE', *, *, #189, .T. ) ;
#305 = CALENDAR_DATE ( 2010, 24, 6 ) ;
#306 = ORIENTED_EDGE ( 'NONE', *, *, #186, .F. ) ;
#307 = LINE ( 'NONE', #56, #298 ) ;
#308 = CIRCLE ( 'NONE', #179, 0.08499999999999997800 ) ;
#309 = ORIENTED_EDGE ( 'NONE', *, *, #192, .T. ) ;
#310 = LINE ( 'NONE', #17, #346 ) ;
#311 = VECTOR ( 'NONE', #69, 39.37007874015748100 ) ;
#312 = ORIENTED_EDGE ( 'NONE', *, *, #175, .T. ) ;
#313 = VECTOR ( 'NONE', #9, 39.37007874015748100 ) ;
#314 = ORIENTED_EDGE ( 'NONE', *, *, #177, .F. ) ;
#315 = VECTOR ( 'NONE', #13, 39.37007874015748100 ) ;
#316 = ORIENTED_EDGE ( 'NONE', *, *, #194, .F. ) ;
#317 = ORIENTED_EDGE ( 'NONE', *, *, #190, .F. ) ;
#318 = LINE ( 'NONE', #40, #313 ) ;
#319 = VECTOR ( 'NONE', #8, 39.37007874015748100 ) ;
#320 = LINE ( 'NONE', #50, #319 ) ;
#321 = FACE_OUTER_BOUND ( 'NONE', #213, .T. ) ;
#322 = FACE_BOUND ( 'NONE', #216, .T. ) ;
#323 = LINE ( 'NONE', #112, #333 ) ;
#324 = VECTOR ( 'NONE', #136, 39.37007874015748100 ) ;
#325 = ORIENTED_EDGE ( 'NONE', *, *, #168, .T. ) ;
#326 = CYLINDRICAL_SURFACE ( 'NONE', #183, 0.08499999999999997800 ) ;
#327 = VECTOR ( 'NONE', #88, 39.37007874015748100 ) ;
#328 = CIRCLE ( 'NONE', #162, 0.08499999999999997800 ) ;
#329 = LINE ( 'NONE', #132, #324 ) ;
#330 = CYLINDRICAL_SURFACE ( 'NONE', #182, 0.08499999999999997800 ) ;
#331 = FACE_OUTER_BOUND ( 'NONE', #218, .T. ) ;
#332 = LINE ( 'NONE', #49, #277 ) ;
#333 = VECTOR ( 'NONE', #146, 39.37007874015748100 ) ;
#334 = ORIENTED_EDGE ( 'NONE', *, *, #178, .T. ) ;
#335 = ORIENTED_EDGE ( 'NONE', *, *, #171, .T. ) ;
#336 = APPROVAL_DATE_TIME ( #261, #203 ) ;
#337 = PERSON_AND_ORGANIZATION ( #387, #269 ) ;
#338 = APPROVAL_PERSON_ORGANIZATION ( #337, #196, #96 ) ;
#339 = ORIENTED_EDGE ( 'NONE', *, *, #202, .F. ) ;
#340 = ORIENTED_EDGE ( 'NONE', *, *, #158, .T. ) ;
#341 = FACE_OUTER_BOUND ( 'NONE', #222, .T. ) ;
#342 = ORIENTED_EDGE ( 'NONE', *, *, #192, .F. ) ;
#343 = LINE ( 'NONE', #51, #250 ) ;
#344 = LINE ( 'NONE', #57, #273 ) ;
#345 = ORIENTED_EDGE ( 'NONE', *, *, #171, .F. ) ;
#346 = VECTOR ( 'NONE', #19, 39.37007874015748100 ) ;
#347 = SECURITY_CLASSIFICATION ( '', '', #109 ) ;
#348 = ORIENTED_EDGE ( 'NONE', *, *, #155, .F. ) ;
#349 = DATE_AND_TIME ( #351, #360 ) ;
#350 = PERSON_AND_ORGANIZATION ( #387, #269 ) ;
#351 = CALENDAR_DATE ( 2010, 24, 6 ) ;
#352 = ORIENTED_EDGE ( 'NONE', *, *, #168, .F. ) ;
#353 = PERSON_AND_ORGANIZATION ( #387, #269 ) ;
#354 = ORIENTED_EDGE ( 'NONE', *, *, #155, .T. ) ;
#355 = ORIENTED_EDGE ( 'NONE', *, *, #170, .F. ) ;
#356 = APPROVAL_PERSON_ORGANIZATION ( #358, #200, #120 ) ;
#357 = ORIENTED_EDGE ( 'NONE', *, *, #202, .T. ) ;
#358 = PERSON_AND_ORGANIZATION ( #387, #269 ) ;
#359 = DATE_AND_TIME ( #361, #296 ) ;
#360 = LOCAL_TIME ( 12, 22, 30.00000000000000000, #368 ) ;
#361 = CALENDAR_DATE ( 2010, 24, 6 ) ;
#362 = ORIENTED_EDGE ( 'NONE', *, *, #189, .F. ) ;
#363 = ORIENTED_EDGE ( 'NONE', *, *, #178, .F. ) ;
#364 = ORIENTED_EDGE ( 'NONE', *, *, #197, .F. ) ;
#365 = ORIENTED_EDGE ( 'NONE', *, *, #180, .F. ) ;
#366 = ORIENTED_EDGE ( 'NONE', *, *, #156, .F. ) ;
#367 = COORDINATED_UNIVERSAL_TIME_OFFSET ( 6, 0, .BEHIND. ) ;
#368 = COORDINATED_UNIVERSAL_TIME_OFFSET ( 6, 0, .BEHIND. ) ;
#369 = ORIENTED_EDGE ( 'NONE', *, *, #158, .F. ) ;
#370 = CALENDAR_DATE ( 2010, 24, 6 ) ;
#371 = PERSON_AND_ORGANIZATION ( #387, #269 ) ;
#372 = COORDINATED_UNIVERSAL_TIME_OFFSET ( 6, 0, .BEHIND. ) ;
#373 = ADVANCED_BREP_SHAPE_REPRESENTATION ( 'D020333-v2_aLIGO_SUS_HSTS_Lower Blade Clamp, Lower Side, Angled 0.5', ( #375, #207 ), #286 ) ;
#374 = UNCERTAINTY_MEASURE_WITH_UNIT (LENGTH_MEASURE( 1.000000000000000100E-005 ), #131, 'distance_accuracy_value', 'NONE');
#375 = MANIFOLD_SOLID_BREP ( 'NONE', #212 ) ;
#376 = DIMENSIONAL_EXPONENTS ( 1.000000000000000000, 0.0000000000000000000, 0.0000000000000000000, 0.0000000000000000000, 0.0000000000000000000, 0.0000000000000000000, 0.0000000000000000000 ) ;
#377 = ADVANCED_FACE ( 'NONE', ( #251 ), #252, .F. ) ;
#378 = ADVANCED_FACE ( 'NONE', ( #253 ), #101, .T. ) ;
#379 = ADVANCED_FACE ( 'NONE', ( #254 ), #153, .T. ) ;
#380 = ADVANCED_FACE ( 'NONE', ( #255 ), #138, .T. ) ;
#381 = ADVANCED_FACE ( 'NONE', ( #256 ), #257, .F. ) ;
#382 = ADVANCED_FACE ( 'NONE', ( #321 ), #326, .F. ) ;
#383 = ADVANCED_FACE ( 'NONE', ( #287 ), #330, .F. ) ;
#384 = ADVANCED_FACE ( 'NONE', ( #331, #282, #283 ), #114, .F. ) ;
#385 = ADVANCED_FACE ( 'NONE', ( #341 ), #140, .F. ) ;
#386 = ADVANCED_FACE ( 'NONE', ( #285, #322, #249 ), #126, .T. ) ;
#387 = PERSON ( 'UNSPECIFIED', 'UNSPECIFIED', 'UNSPECIFIED', ('UNSPECIFIED'), ('UNSPECIFIED'), ('UNSPECIFIED') ) ;
#388 = PRODUCT ( 'D020333-v2_aLIGO_SUS_HSTS_Lower Blade Clamp, Lower Side, Angled 0.5', 'D020333-v2_aLIGO_SUS_HSTS_Lower Blade Clamp, Lower Side, Angled 0.5', '', ( #64 ) ) ;
ENDSEC;
END-ISO-10303-21;
