ISO-10303-21;
HEADER;
FILE_DESCRIPTION (( 'STEP AP203' ),
    '1' );
FILE_NAME ('D020313-v2_aLIGO_SUS_HSTS_Lower Blade Clamp, Lower Side, Angled 2.0.STEP',
    '2010-06-25T14:55:11',
    ( 'Dwayne Giardina' ),
    ( 'CA Institute of Technology' ),
    'SwSTEP 2.0',
    'SolidWorks 2009',
    '' );
FILE_SCHEMA (( 'CONFIG_CONTROL_DESIGN' ));
ENDSEC;

DATA;
#1 =( BOUNDED_CURVE ( )  B_SPLINE_CURVE ( 3, ( #140, #74, #73, #7 ),
 .UNSPECIFIED., .F., .T. ) 
 B_SPLINE_CURVE_WITH_KNOTS ( ( 4, 4 ),
 ( 0.0000000000000000000, 3.141592653589793100 ),
 .UNSPECIFIED. ) 
 CURVE ( )  GEOMETRIC_REPRESENTATION_ITEM ( )  RATIONAL_B_SPLINE_CURVE ( ( 1.000000000000000000, 0.3333333333333333700, 0.3333333333333333700, 1.000000000000000000 ) ) 
 REPRESENTATION_ITEM ( '' )  );
#2 =( BOUNDED_CURVE ( )  B_SPLINE_CURVE ( 3, ( #149, #148, #147, #146 ),
 .UNSPECIFIED., .F., .T. ) 
 B_SPLINE_CURVE_WITH_KNOTS ( ( 4, 4 ),
 ( 3.141592653589793100, 6.283185307179586200 ),
 .UNSPECIFIED. ) 
 CURVE ( )  GEOMETRIC_REPRESENTATION_ITEM ( )  RATIONAL_B_SPLINE_CURVE ( ( 1.000000000000000000, 0.3333333333333333700, 0.3333333333333333700, 1.000000000000000000 ) ) 
 REPRESENTATION_ITEM ( '' )  );
#3 = DESIGN_CONTEXT ( 'detailed design', #55, 'design' ) ;
#4 = PRODUCT_DEFINITION_SHAPE ( 'NONE', 'NONE',  #333 ) ;
#5 =( BOUNDED_CURVE ( )  B_SPLINE_CURVE ( 3, ( #155, #154, #153, #152 ),
 .UNSPECIFIED., .F., .T. ) 
 B_SPLINE_CURVE_WITH_KNOTS ( ( 4, 4 ),
 ( 3.141592653589793100, 6.283185307179586200 ),
 .UNSPECIFIED. ) 
 CURVE ( )  GEOMETRIC_REPRESENTATION_ITEM ( )  RATIONAL_B_SPLINE_CURVE ( ( 1.000000000000000000, 0.3333333333333333700, 0.3333333333333333700, 1.000000000000000000 ) ) 
 REPRESENTATION_ITEM ( '' )  );
#6 =( BOUNDED_CURVE ( )  B_SPLINE_CURVE ( 3, ( #114, #120, #14, #122 ),
 .UNSPECIFIED., .F., .T. ) 
 B_SPLINE_CURVE_WITH_KNOTS ( ( 4, 4 ),
 ( 0.0000000000000000000, 3.141592653589793100 ),
 .UNSPECIFIED. ) 
 CURVE ( )  GEOMETRIC_REPRESENTATION_ITEM ( )  RATIONAL_B_SPLINE_CURVE ( ( 1.000000000000000000, 0.3333333333333333700, 0.3333333333333333700, 1.000000000000000000 ) ) 
 REPRESENTATION_ITEM ( '' )  );
#7 = CARTESIAN_POINT ( 'NONE',  ( 0.1969999999999999800, 0.1871575673250490100, -0.1118503950000000500 ) ) ;
#8 = CARTESIAN_POINT ( 'NONE',  ( 0.1969999999999999800, 0.0000000000000000000, -0.1968503950000000100 ) ) ;
#9 = DIRECTION ( 'NONE',  ( 1.000000000000000000, 1.224606353822377500E-016, 0.0000000000000000000 ) ) ;
#10 = DIRECTION ( 'NONE',  ( 1.224606353822377500E-016, -1.000000000000000000, 0.0000000000000000000 ) ) ;
#11 = DIRECTION ( 'NONE',  ( 1.000000000000000000, 1.224606353822377500E-016, 0.0000000000000000000 ) ) ;
#12 = CARTESIAN_POINT ( 'NONE',  ( 0.3543307086614173000, 0.1970000000000000100, 0.0000000000000000000 ) ) ;
#13 = DIRECTION ( 'NONE',  ( 1.000000000000000000, 1.224606353822377300E-016, -0.0000000000000000000 ) ) ;
#14 = CARTESIAN_POINT ( 'NONE',  ( -0.3669999999999999400, 0.1871575673250489800, -0.1118503950000000200 ) ) ;
#15 = DIRECTION ( 'NONE',  ( 1.224606353822377500E-016, -1.000000000000000000, 0.0000000000000000000 ) ) ;
#16 = CARTESIAN_POINT ( 'NONE',  ( -0.1970000000000000400, 0.0000000000000000000, -0.1968503949999999800 ) ) ;
#17 = DIRECTION ( 'NONE',  ( -0.0000000000000000000, 1.000000000000000000, -0.0000000000000000000 ) ) ;
#18 = PLANE ( 'NONE',  #331 ) ;
#19 = CARTESIAN_POINT ( 'NONE',  ( -0.3543307086614173000, 2.073152488754191300E-020, -0.3937007900000000200 ) ) ;
#20 = DIRECTION ( 'NONE',  ( -0.0000000000000000000, -1.000000000000000000, -0.0000000000000000000 ) ) ;
#21 = DIRECTION ( 'NONE',  ( 0.0000000000000000000, 0.0000000000000000000, 1.000000000000000000 ) ) ;
#22 = DIRECTION ( 'NONE',  ( -0.0000000000000000000, 1.000000000000000000, -0.0000000000000000000 ) ) ;
#23 = DIRECTION ( 'NONE',  ( -1.000000000000000000, 0.0000000000000000000, -0.0000000000000000000 ) ) ;
#24 = DIRECTION ( 'NONE',  ( 0.0000000000000000000, 0.0000000000000000000, -1.000000000000000000 ) ) ;
#25 = CARTESIAN_POINT ( 'NONE',  ( -0.3543307086614173000, -4.339156371811573000E-017, 0.0000000000000000000 ) ) ;
#26 = CARTESIAN_POINT ( 'NONE',  ( -0.1970000000000000400, -0.8029999999999998300, -0.1968503949999999800 ) ) ;
#27 = CARTESIAN_POINT ( 'NONE',  ( 0.0000000000000000000, 0.0000000000000000000, 0.0000000000000000000 ) ) ;
#28 = DIRECTION ( 'NONE',  ( 1.000000000000000000, 1.224606353822377500E-016, 0.0000000000000000000 ) ) ;
#29 = DIRECTION ( 'NONE',  ( 1.224606353822377500E-016, -1.000000000000000000, 0.0000000000000000000 ) ) ;
#30 = CARTESIAN_POINT ( 'NONE',  ( 0.0000000000000000000, 0.0000000000000000000, -0.3937007900000000200 ) ) ;
#31 = PLANE ( 'NONE',  #373 ) ;
#32 = DIRECTION ( 'NONE',  ( 1.000000000000000000, 1.224606353822377500E-016, 0.0000000000000000000 ) ) ;
#33 = DIRECTION ( 'NONE',  ( 1.224606353822377500E-016, -1.000000000000000000, 0.0000000000000000000 ) ) ;
#34 = VERTEX_POINT ( 'NONE', #130 ) ;
#35 = DIRECTION ( 'NONE',  ( -1.000000000000000000, 4.818676322157797600E-017, -0.0000000000000000000 ) ) ;
#36 = CARTESIAN_POINT ( 'NONE',  ( -0.1970000000000000400, -0.8029999999999998300, -0.1118503950000000100 ) ) ;
#37 = VERTEX_POINT ( 'NONE', #111 ) ;
#38 = CARTESIAN_POINT ( 'NONE',  ( 0.3543307086614173000, 0.1970000000000000100, -0.3937007900000000200 ) ) ;
#39 = DIRECTION ( 'NONE',  ( -0.0000000000000000000, 1.000000000000000000, -0.0000000000000000000 ) ) ;
#40 = PLANE ( 'NONE',  #332 ) ;
#41 = CARTESIAN_POINT ( 'NONE',  ( -0.3543307086614173000, -4.339156371811573000E-017, -0.3937007900000000200 ) ) ;
#42 = CARTESIAN_POINT ( 'NONE',  ( 0.3543307086614173000, -2.073152488754191300E-020, -0.3937007900000000200 ) ) ;
#43 = DIRECTION ( 'NONE',  ( 0.0000000000000000000, -0.03489949670249399600, 0.9993908270190959800 ) ) ;
#44 = VERTEX_POINT ( 'NONE', #128 ) ;
#45 = CARTESIAN_POINT ( 'NONE',  ( 0.0000000000000000000, 0.0000000000000000000, 0.0000000000000000000 ) ) ;
#46 = DIRECTION ( 'NONE',  ( -0.0000000000000000000, -1.000000000000000000, -0.0000000000000000000 ) ) ;
#47 = CARTESIAN_POINT ( 'NONE',  ( -0.6656692913385826600, 0.1832516654636937900, 0.0000000000000000000 ) ) ;
#48 = DIRECTION ( 'NONE',  ( -0.0000000000000000000, 0.03489949670249399600, -0.9993908270190959800 ) ) ;
#49 = DIRECTION ( 'NONE',  ( 1.000000000000000000, 0.0000000000000000000, 0.0000000000000000000 ) ) ;
#50 = PERSON_AND_ORGANIZATION_ROLE ( 'creator' ) ;
#51 = APPROVAL_ROLE ( '' ) ;
#52 = DIRECTION ( 'NONE',  ( 0.0000000000000000000, 0.0000000000000000000, 1.000000000000000000 ) ) ;
#53 = APPROVAL_STATUS ( 'not_yet_approved' ) ;
#54 = DATE_TIME_ROLE ( 'creation_date' ) ;
#55 = APPLICATION_CONTEXT ( 'configuration controlled 3d designs of mechanical parts and assemblies' ) ;
#56 = APPLICATION_PROTOCOL_DEFINITION ( 'international standard', 'config_control_design', 1994, #55 ) ;
#57 = DIRECTION ( 'NONE',  ( -0.0000000000000000000, 1.000000000000000000, -0.0000000000000000000 ) ) ;
#58 = DIRECTION ( 'NONE',  ( 0.0000000000000000000, -0.9993908270190959800, -0.03489949670249399600 ) ) ;
#59 = APPLICATION_PROTOCOL_DEFINITION ( 'international standard', 'config_control_design', 1994, #77 ) ;
#60 = DIRECTION ( 'NONE',  ( -0.0000000000000000000, 1.000000000000000000, -0.0000000000000000000 ) ) ;
#61 = CARTESIAN_POINT ( 'NONE',  ( 0.1969999999999999800, -0.8029999999999998300, -0.1968503950000000100 ) ) ;
#62 = VERTEX_POINT ( 'NONE', #139 ) ;
#63 = VERTEX_POINT ( 'NONE', #138 ) ;
#64 = VERTEX_POINT ( 'NONE', #137 ) ;
#65 = VERTEX_POINT ( 'NONE', #110 ) ;
#66 = VERTEX_POINT ( 'NONE', #135 ) ;
#67 = VERTEX_POINT ( 'NONE', #134 ) ;
#68 = VERTEX_POINT ( 'NONE', #133 ) ;
#69 =( LENGTH_UNIT ( ) NAMED_UNIT ( * ) SI_UNIT ( $, .METRE. ) );
#70 = DIRECTION ( 'NONE',  ( 0.0000000000000000000, 0.0000000000000000000, 1.000000000000000000 ) ) ;
#71 =( NAMED_UNIT ( * ) SI_UNIT ( $, .STERADIAN. ) SOLID_ANGLE_UNIT ( ) );
#72 = VERTEX_POINT ( 'NONE', #132 ) ;
#73 = CARTESIAN_POINT ( 'NONE',  ( 0.02700000000000004800, 0.1871575673250489800, -0.1118503950000000600 ) ) ;
#74 = CARTESIAN_POINT ( 'NONE',  ( 0.02700000000000004800, 0.1930940981386449500, -0.2818503950000000900 ) ) ;
#75 = CARTESIAN_POINT ( 'NONE',  ( 0.1969999999999999800, -0.8029999999999998300, -0.2818503949999999800 ) ) ;
#76 = VERTEX_POINT ( 'NONE', #131 ) ;
#77 = APPLICATION_CONTEXT ( 'configuration controlled 3d designs of mechanical parts and assemblies' ) ;
#78 = DIRECTION ( 'NONE',  ( 1.000000000000000000, -5.850897023817385100E-020, -0.0000000000000000000 ) ) ;
#79 = DIRECTION ( 'NONE',  ( 0.0000000000000000000, 0.0000000000000000000, 1.000000000000000000 ) ) ;
#80 = CARTESIAN_POINT ( 'NONE',  ( -0.3543307086614173000, -4.339156371811573000E-017, -0.3937007900000000200 ) ) ;
#81 = CARTESIAN_POINT ( 'NONE',  ( 0.3543307086614173000, 0.1970000000000000100, -0.3937007900000000200 ) ) ;
#82 = PLANE ( 'NONE',  #360 ) ;
#83 = APPROVAL_ROLE ( '' ) ;
#84 = APPROVAL_STATUS ( 'not_yet_approved' ) ;
#85 = DATE_TIME_ROLE ( 'classification_date' ) ;
#86 = PERSON_AND_ORGANIZATION_ROLE ( 'classification_officer' ) ;
#87 = SECURITY_CLASSIFICATION_LEVEL ( 'unclassified' ) ;
#88 =( CONVERSION_BASED_UNIT ( 'INCH', #174 ) LENGTH_UNIT ( ) NAMED_UNIT ( #379 ) );
#89 =( NAMED_UNIT ( * ) PLANE_ANGLE_UNIT ( ) SI_UNIT ( $, .RADIAN. ) );
#90 = PERSON_AND_ORGANIZATION_ROLE ( 'design_supplier' ) ;
#91 = PERSON_AND_ORGANIZATION_ROLE ( 'creator' ) ;
#92 = APPROVAL_ROLE ( '' ) ;
#93 = MECHANICAL_CONTEXT ( 'NONE', #77, 'mechanical' ) ;
#94 = DIRECTION ( 'NONE',  ( 0.0000000000000000000, 0.03489949670249399600, -0.9993908270190959800 ) ) ;
#95 = DIRECTION ( 'NONE',  ( -0.0000000000000000000, 1.000000000000000000, -0.0000000000000000000 ) ) ;
#96 = DIRECTION ( 'NONE',  ( 0.0000000000000000000, 0.0000000000000000000, 1.000000000000000000 ) ) ;
#97 = DIRECTION ( 'NONE',  ( -0.0000000000000000000, 1.000000000000000000, -0.0000000000000000000 ) ) ;
#98 = CARTESIAN_POINT ( 'NONE',  ( -0.1970000000000000400, -0.8029999999999998300, -0.2818503949999999800 ) ) ;
#99 = DIRECTION ( 'NONE',  ( -1.000000000000000000, 0.0000000000000000000, 0.0000000000000000000 ) ) ;
#100 = CARTESIAN_POINT ( 'NONE',  ( -0.3543307086614173000, -4.339156371811573000E-017, -0.3937007900000000200 ) ) ;
#101 = PERSON_AND_ORGANIZATION_ROLE ( 'design_owner' ) ;
#102 = PLANE ( 'NONE',  #329 ) ;
#103 = DIRECTION ( 'NONE',  ( -1.000000000000000000, 0.0000000000000000000, -0.0000000000000000000 ) ) ;
#104 = DIRECTION ( 'NONE',  ( 0.0000000000000000000, 0.0000000000000000000, -1.000000000000000000 ) ) ;
#105 = APPROVAL_STATUS ( 'not_yet_approved' ) ;
#106 = DIRECTION ( 'NONE',  ( -0.0000000000000000000, 1.000000000000000000, -0.0000000000000000000 ) ) ;
#107 = CARTESIAN_POINT ( 'NONE',  ( -0.3543307086614173000, 2.073152488754191300E-020, 0.0000000000000000000 ) ) ;
#108 = PLANE ( 'NONE',  #346 ) ;
#109 = DIRECTION ( 'NONE',  ( 0.0000000000000000000, 0.0000000000000000000, 1.000000000000000000 ) ) ;
#110 = CARTESIAN_POINT ( 'NONE',  ( 0.1969999999999999800, 0.1930940981386449200, -0.2818503949999999800 ) ) ;
#111 = CARTESIAN_POINT ( 'NONE',  ( 0.3543307086614173000, -2.073152488754191300E-020, 0.0000000000000000000 ) ) ;
#112 = CARTESIAN_POINT ( 'NONE',  ( -0.3543307086614173000, 0.1967600589505928100, -0.3868297773362050500 ) ) ;
#113 = VERTEX_POINT ( 'NONE', #136 ) ;
#114 = CARTESIAN_POINT ( 'NONE',  ( -0.1970000000000000400, 0.1930940981386449200, -0.2818503949999999800 ) ) ;
#115 = DIRECTION ( 'NONE',  ( 1.000000000000000000, -0.0000000000000000000, -0.0000000000000000000 ) ) ;
#116 = CARTESIAN_POINT ( 'NONE',  ( -0.6656692913385826600, 0.1970000000000000100, -0.3937007900000000200 ) ) ;
#117 = CARTESIAN_POINT ( 'NONE',  ( 0.1969999999999999800, -0.8029999999999998300, -0.1118503950000000500 ) ) ;
#118 = DIRECTION ( 'NONE',  ( -0.0000000000000000000, 1.000000000000000000, -0.0000000000000000000 ) ) ;
#119 = DIRECTION ( 'NONE',  ( 0.0000000000000000000, 0.0000000000000000000, 1.000000000000000000 ) ) ;
#120 = CARTESIAN_POINT ( 'NONE',  ( -0.3669999999999999400, 0.1930940981386449500, -0.2818503949999999800 ) ) ;
#121 = CARTESIAN_POINT ( 'NONE',  ( -0.1970000000000000400, -0.8029999999999998300, -0.1968503949999999800 ) ) ;
#122 = CARTESIAN_POINT ( 'NONE',  ( -0.1970000000000000400, 0.1871575673250490100, -0.1118503950000000100 ) ) ;
#123 = CARTESIAN_POINT ( 'NONE',  ( 0.1969999999999999800, -0.8029999999999998300, -0.1968503950000000100 ) ) ;
#124 = DIRECTION ( 'NONE',  ( 1.000000000000000000, 0.0000000000000000000, -0.0000000000000000000 ) ) ;
#125 = DIRECTION ( 'NONE',  ( -0.0000000000000000000, 0.0000000000000000000, -1.000000000000000000 ) ) ;
#126 = VERTEX_POINT ( 'NONE', #142 ) ;
#127 = VERTEX_POINT ( 'NONE', #141 ) ;
#128 = CARTESIAN_POINT ( 'NONE',  ( -0.3543307086614173000, -4.339156371811573000E-017, 0.0000000000000000000 ) ) ;
#129 = VERTEX_POINT ( 'NONE', #143 ) ;
#130 = CARTESIAN_POINT ( 'NONE',  ( -0.1970000000000000400, 0.0000000000000000000, -0.1118503950000000100 ) ) ;
#131 = CARTESIAN_POINT ( 'NONE',  ( -0.3543307086614173000, 0.1970000000000000100, -0.3937007900000000200 ) ) ;
#132 = CARTESIAN_POINT ( 'NONE',  ( -0.3543307086614173000, 0.1832516654636937900, 0.0000000000000000000 ) ) ;
#133 = CARTESIAN_POINT ( 'NONE',  ( -0.1970000000000000400, 0.1930940981386449200, -0.2818503949999999800 ) ) ;
#134 = CARTESIAN_POINT ( 'NONE',  ( -0.1970000000000000400, 0.0000000000000000000, -0.2818503949999999800 ) ) ;
#135 = CARTESIAN_POINT ( 'NONE',  ( -0.1970000000000000400, 0.1871575673250490100, -0.1118503950000000100 ) ) ;
#136 = CARTESIAN_POINT ( 'NONE',  ( 0.1969999999999999800, 0.1871575673250490100, -0.1118503950000000500 ) ) ;
#137 = CARTESIAN_POINT ( 'NONE',  ( 0.3543307086614173000, 0.1970000000000000100, -0.3937007900000000200 ) ) ;
#138 = CARTESIAN_POINT ( 'NONE',  ( 0.3543307086614173000, -2.073152488754191300E-020, -0.3937007900000000200 ) ) ;
#139 = CARTESIAN_POINT ( 'NONE',  ( -0.3543307086614173000, -4.339156371811573000E-017, -0.3937007900000000200 ) ) ;
#140 = CARTESIAN_POINT ( 'NONE',  ( 0.1969999999999999800, 0.1930940981386449200, -0.2818503949999999800 ) ) ;
#141 = CARTESIAN_POINT ( 'NONE',  ( 0.3543307086614173000, 0.1832516654636937900, 0.0000000000000000000 ) ) ;
#142 = CARTESIAN_POINT ( 'NONE',  ( 0.1969999999999999800, 0.0000000000000000000, -0.2818503949999999800 ) ) ;
#143 = CARTESIAN_POINT ( 'NONE',  ( 0.1969999999999999800, 0.0000000000000000000, -0.1118503950000000500 ) ) ;
#144 = DIRECTION ( 'NONE',  ( -0.0000000000000000000, 1.000000000000000000, -0.0000000000000000000 ) ) ;
#145 = CARTESIAN_POINT ( 'NONE',  ( 0.1969999999999999800, 0.0000000000000000000, -0.1968503950000000100 ) ) ;
#146 = CARTESIAN_POINT ( 'NONE',  ( 0.1969999999999999800, 0.1930940981386449200, -0.2818503949999999800 ) ) ;
#147 = CARTESIAN_POINT ( 'NONE',  ( 0.3669999999999999400, 0.1930940981386449500, -0.2818503950000000900 ) ) ;
#148 = CARTESIAN_POINT ( 'NONE',  ( 0.3669999999999999400, 0.1871575673250489800, -0.1118503950000000200 ) ) ;
#149 = CARTESIAN_POINT ( 'NONE',  ( 0.1969999999999999800, 0.1871575673250490100, -0.1118503950000000500 ) ) ;
#150 = DIRECTION ( 'NONE',  ( 0.0000000000000000000, 0.0000000000000000000, 1.000000000000000000 ) ) ;
#151 = CARTESIAN_POINT ( 'NONE',  ( 0.3543307086614173000, -2.073152488754191300E-020, -0.3937007900000000200 ) ) ;
#152 = CARTESIAN_POINT ( 'NONE',  ( -0.1970000000000000400, 0.1930940981386449200, -0.2818503949999999800 ) ) ;
#153 = CARTESIAN_POINT ( 'NONE',  ( -0.02700000000000011400, 0.1930940981386449500, -0.2818503949999999800 ) ) ;
#154 = CARTESIAN_POINT ( 'NONE',  ( -0.02700000000000011400, 0.1871575673250489800, -0.1118503949999999800 ) ) ;
#155 = CARTESIAN_POINT ( 'NONE',  ( -0.1970000000000000400, 0.1871575673250490100, -0.1118503950000000100 ) ) ;
#156 = DIRECTION ( 'NONE',  ( 1.000000000000000000, 1.224606353822377500E-016, 0.0000000000000000000 ) ) ;
#157 = DIRECTION ( 'NONE',  ( 1.224606353822377500E-016, -1.000000000000000000, 0.0000000000000000000 ) ) ;
#158 = CARTESIAN_POINT ( 'NONE',  ( -0.1970000000000000400, 0.0000000000000000000, -0.1968503949999999800 ) ) ;
#159 = CARTESIAN_POINT ( 'NONE',  ( 0.3543307086614173000, 0.1970000000000000100, -0.3937007900000000200 ) ) ;
#160 = CARTESIAN_POINT ( 'NONE',  ( -0.3543307086614173000, 0.1970000000000000400, -0.3937007900000000200 ) ) ;
#161 = PRODUCT ( 'D020313-v2_aLIGO_SUS_HSTS_Lower Blade Clamp, Lower Side, Angled 2.0', 'D020313-v2_aLIGO_SUS_HSTS_Lower Blade Clamp, Lower Side, Angled 2.0', '', ( #93 ) ) ;
#162 = PERSON ( 'UNSPECIFIED', 'UNSPECIFIED', 'UNSPECIFIED', ('UNSPECIFIED'), ('UNSPECIFIED'), ('UNSPECIFIED') ) ;
#163 = LINE ( 'NONE', #75, #165 ) ;
#164 = PERSON_AND_ORGANIZATION ( #162, #179 ) ;
#165 = VECTOR ( 'NONE', #39, 39.37007874015748100 ) ;
#166 = EDGE_LOOP ( 'NONE', ( #172, #257 ) ) ;
#167 = VECTOR ( 'NONE', #144, 39.37007874015748100 ) ;
#168 = ORIENTED_EDGE ( 'NONE', *, *, #341, .F. ) ;
#169 = LINE ( 'NONE', #80, #248 ) ;
#170 = DATE_AND_TIME ( #239, #279 ) ;
#171 = ORIENTED_EDGE ( 'NONE', *, *, #352, .F. ) ;
#172 = ORIENTED_EDGE ( 'NONE', *, *, #342, .F. ) ;
#173 = ORIENTED_EDGE ( 'NONE', *, *, #365, .F. ) ;
#174 = LENGTH_MEASURE_WITH_UNIT ( LENGTH_MEASURE( 0.02539999999999999900 ), #69 );
#175 = EDGE_LOOP ( 'NONE', ( #300, #264 ) ) ;
#176 = FACE_BOUND ( 'NONE', #175, .T. ) ;
#177 = LINE ( 'NONE', #160, #283 ) ;
#178 = DATE_AND_TIME ( #215, #210 ) ;
#179 = ORGANIZATION ( 'UNSPECIFIED', 'UNSPECIFIED', '' ) ;
#180 = PERSON_AND_ORGANIZATION ( #162, #179 ) ;
#181 = COORDINATED_UNIVERSAL_TIME_OFFSET ( 6, 0, .BEHIND. ) ;
#182 = CYLINDRICAL_SURFACE ( 'NONE', #357, 0.08499999999999997800 ) ;
#183 = ORIENTED_EDGE ( 'NONE', *, *, #372, .F. ) ;
#184 = LINE ( 'NONE', #41, #196 ) ;
#185 = CIRCLE ( 'NONE', #344, 0.08499999999999997800 ) ;
#186 = ORIENTED_EDGE ( 'NONE', *, *, #342, .T. ) ;
#187 = EDGE_LOOP ( 'NONE', ( #301, #261, #298, #240 ) ) ;
#188 = ORIENTED_EDGE ( 'NONE', *, *, #355, .T. ) ;
#189 =( GEOMETRIC_REPRESENTATION_CONTEXT ( 3 ) GLOBAL_UNCERTAINTY_ASSIGNED_CONTEXT ( ( #377 ) ) GLOBAL_UNIT_ASSIGNED_CONTEXT ( ( #88, #89, #71 ) ) REPRESENTATION_CONTEXT ( 'NONE', 'WORKASPACE' ) );
#190 = APPROVAL_DATE_TIME ( #178, #320 ) ;
#191 = PERSON_AND_ORGANIZATION ( #162, #179 ) ;
#192 = APPROVAL_PERSON_ORGANIZATION ( #194, #320, #92 ) ;
#193 = LINE ( 'NONE', #42, #286 ) ;
#194 = PERSON_AND_ORGANIZATION ( #162, #179 ) ;
#195 = FACE_OUTER_BOUND ( 'NONE', #199, .T. ) ;
#196 = VECTOR ( 'NONE', #46, 39.37007874015748100 ) ;
#197 = VECTOR ( 'NONE', #57, 39.37007874015748100 ) ;
#198 = ORIENTED_EDGE ( 'NONE', *, *, #354, .T. ) ;
#199 = EDGE_LOOP ( 'NONE', ( #243, #188, #198, #225 ) ) ;
#200 = ORIENTED_EDGE ( 'NONE', *, *, #324, .F. ) ;
#201 = ORIENTED_EDGE ( 'NONE', *, *, #365, .T. ) ;
#202 = CYLINDRICAL_SURFACE ( 'NONE', #326, 0.08499999999999997800 ) ;
#203 = ORIENTED_EDGE ( 'NONE', *, *, #324, .T. ) ;
#204 = ORIENTED_EDGE ( 'NONE', *, *, #328, .T. ) ;
#205 = FACE_OUTER_BOUND ( 'NONE', #271, .T. ) ;
#206 = CALENDAR_DATE ( 2010, 25, 6 ) ;
#207 = PERSON_AND_ORGANIZATION ( #162, #179 ) ;
#208 = ORIENTED_EDGE ( 'NONE', *, *, #370, .F. ) ;
#209 = DATE_AND_TIME ( #276, #226 ) ;
#210 = LOCAL_TIME ( 9, 55, 11.00000000000000000, #238 ) ;
#211 = APPROVAL_PERSON_ORGANIZATION ( #207, #325, #51 ) ;
#212 = CLOSED_SHELL ( 'NONE', ( #383, #381, #378, #387, #382, #380, #386, #384, #385, #388 ) ) ;
#213 = ORIENTED_EDGE ( 'NONE', *, *, #355, .F. ) ;
#214 = LINE ( 'NONE', #12, #311 ) ;
#215 = CALENDAR_DATE ( 2010, 25, 6 ) ;
#216 = PERSON_AND_ORGANIZATION ( #162, #179 ) ;
#217 = ORIENTED_EDGE ( 'NONE', *, *, #351, .T. ) ;
#218 = VECTOR ( 'NONE', #20, 39.37007874015748100 ) ;
#219 = APPROVAL_DATE_TIME ( #170, #325 ) ;
#220 = EDGE_LOOP ( 'NONE', ( #254, #289, #266, #288 ) ) ;
#221 = ORIENTED_EDGE ( 'NONE', *, *, #350, .T. ) ;
#222 = ORIENTED_EDGE ( 'NONE', *, *, #321, .F. ) ;
#223 = EDGE_LOOP ( 'NONE', ( #287, #275, #234, #277 ) ) ;
#224 = DATE_AND_TIME ( #206, #229 ) ;
#225 = ORIENTED_EDGE ( 'NONE', *, *, #353, .T. ) ;
#226 = LOCAL_TIME ( 9, 55, 11.00000000000000000, #285 ) ;
#227 = COORDINATED_UNIVERSAL_TIME_OFFSET ( 6, 0, .BEHIND. ) ;
#228 = EDGE_LOOP ( 'NONE', ( #168, #299 ) ) ;
#229 = LOCAL_TIME ( 9, 55, 11.00000000000000000, #227 ) ;
#230 = EDGE_LOOP ( 'NONE', ( #200, #183 ) ) ;
#231 = LINE ( 'NONE', #27, #258 ) ;
#232 = PERSON_AND_ORGANIZATION ( #162, #179 ) ;
#233 = VECTOR ( 'NONE', #115, 39.37007874015748100 ) ;
#234 = ORIENTED_EDGE ( 'NONE', *, *, #359, .T. ) ;
#235 = LINE ( 'NONE', #47, #233 ) ;
#236 = PERSON_AND_ORGANIZATION ( #162, #179 ) ;
#237 = LINE ( 'NONE', #159, #167 ) ;
#238 = COORDINATED_UNIVERSAL_TIME_OFFSET ( 6, 0, .BEHIND. ) ;
#239 = CALENDAR_DATE ( 2010, 25, 6 ) ;
#240 = ORIENTED_EDGE ( 'NONE', *, *, #323, .T. ) ;
#241 = VECTOR ( 'NONE', #43, 39.37007874015748900 ) ;
#242 = SECURITY_CLASSIFICATION ( '', '', #87 ) ;
#243 = ORIENTED_EDGE ( 'NONE', *, *, #362, .T. ) ;
#244 = VECTOR ( 'NONE', #150, 39.37007874015748100 ) ;
#245 = LINE ( 'NONE', #98, #247 ) ;
#246 = ORIENTED_EDGE ( 'NONE', *, *, #322, .T. ) ;
#247 = VECTOR ( 'NONE', #95, 39.37007874015748100 ) ;
#248 = VECTOR ( 'NONE', #79, 39.37007874015748100 ) ;
#249 = FACE_BOUND ( 'NONE', #228, .T. ) ;
#250 = VECTOR ( 'NONE', #97, 39.37007874015748100 ) ;
#251 = CIRCLE ( 'NONE', #364, 0.08499999999999997800 ) ;
#252 = ORIENTED_EDGE ( 'NONE', *, *, #349, .T. ) ;
#253 = ORIENTED_EDGE ( 'NONE', *, *, #353, .F. ) ;
#254 = ORIENTED_EDGE ( 'NONE', *, *, #354, .F. ) ;
#255 = ORIENTED_EDGE ( 'NONE', *, *, #370, .T. ) ;
#256 = LINE ( 'NONE', #117, #197 ) ;
#257 = ORIENTED_EDGE ( 'NONE', *, *, #319, .F. ) ;
#258 = VECTOR ( 'NONE', #13, 39.37007874015748100 ) ;
#259 = ORIENTED_EDGE ( 'NONE', *, *, #351, .F. ) ;
#260 = APPROVAL_PERSON_ORGANIZATION ( #180, #337, #83 ) ;
#261 = ORIENTED_EDGE ( 'NONE', *, *, #359, .F. ) ;
#262 = COORDINATED_UNIVERSAL_TIME_OFFSET ( 6, 0, .BEHIND. ) ;
#263 = CYLINDRICAL_SURFACE ( 'NONE', #374, 0.08499999999999997800 ) ;
#264 = ORIENTED_EDGE ( 'NONE', *, *, #350, .F. ) ;
#265 = EDGE_LOOP ( 'NONE', ( #272, #213, #292, #252 ) ) ;
#266 = ORIENTED_EDGE ( 'NONE', *, *, #323, .F. ) ;
#267 = CIRCLE ( 'NONE', #338, 0.08499999999999997800 ) ;
#268 = LOCAL_TIME ( 9, 55, 11.00000000000000000, #181 ) ;
#269 = ORIENTED_EDGE ( 'NONE', *, *, #341, .T. ) ;
#270 = ORIENTED_EDGE ( 'NONE', *, *, #372, .T. ) ;
#271 = EDGE_LOOP ( 'NONE', ( #173, #204, #255, #203 ) ) ;
#272 = ORIENTED_EDGE ( 'NONE', *, *, #345, .T. ) ;
#273 = LINE ( 'NONE', #112, #241 ) ;
#274 = FACE_OUTER_BOUND ( 'NONE', #291, .T. ) ;
#275 = ORIENTED_EDGE ( 'NONE', *, *, #361, .T. ) ;
#276 = CALENDAR_DATE ( 2010, 25, 6 ) ;
#277 = ORIENTED_EDGE ( 'NONE', *, *, #347, .F. ) ;
#278 = FACE_OUTER_BOUND ( 'NONE', #318, .T. ) ;
#279 = LOCAL_TIME ( 9, 55, 11.00000000000000000, #262 ) ;
#280 = ORIENTED_EDGE ( 'NONE', *, *, #361, .F. ) ;
#281 = ORIENTED_EDGE ( 'NONE', *, *, #319, .T. ) ;
#282 = LINE ( 'NONE', #38, #312 ) ;
#283 = VECTOR ( 'NONE', #35, 39.37007874015748100 ) ;
#284 = EDGE_LOOP ( 'NONE', ( #186, #217, #221, #171 ) ) ;
#285 = COORDINATED_UNIVERSAL_TIME_OFFSET ( 6, 0, .BEHIND. ) ;
#286 = VECTOR ( 'NONE', #78, 39.37007874015748100 ) ;
#287 = ORIENTED_EDGE ( 'NONE', *, *, #362, .F. ) ;
#288 = ORIENTED_EDGE ( 'NONE', *, *, #321, .T. ) ;
#289 = ORIENTED_EDGE ( 'NONE', *, *, #345, .F. ) ;
#290 = ORIENTED_EDGE ( 'NONE', *, *, #352, .T. ) ;
#291 = EDGE_LOOP ( 'NONE', ( #302, #280, #253, #222 ) ) ;
#292 = ORIENTED_EDGE ( 'NONE', *, *, #347, .T. ) ;
#293 = FACE_OUTER_BOUND ( 'NONE', #310, .T. ) ;
#294 = APPROVAL_DATE_TIME ( #209, #337 ) ;
#295 = LINE ( 'NONE', #36, #250 ) ;
#296 = FACE_BOUND ( 'NONE', #230, .T. ) ;
#297 = FACE_OUTER_BOUND ( 'NONE', #265, .T. ) ;
#298 = ORIENTED_EDGE ( 'NONE', *, *, #363, .T. ) ;
#299 = ORIENTED_EDGE ( 'NONE', *, *, #328, .F. ) ;
#300 = ORIENTED_EDGE ( 'NONE', *, *, #322, .F. ) ;
#301 = ORIENTED_EDGE ( 'NONE', *, *, #349, .F. ) ;
#302 = ORIENTED_EDGE ( 'NONE', *, *, #363, .F. ) ;
#303 = SHAPE_DEFINITION_REPRESENTATION ( #4, #375 ) ;
#304 = CALENDAR_DATE ( 2010, 25, 6 ) ;
#305 = CIRCLE ( 'NONE', #369, 0.08499999999999997800 ) ;
#306 = DATE_AND_TIME ( #304, #268 ) ;
#307 = FACE_OUTER_BOUND ( 'NONE', #223, .T. ) ;
#308 = LINE ( 'NONE', #25, #218 ) ;
#309 = FACE_BOUND ( 'NONE', #166, .T. ) ;
#310 = EDGE_LOOP ( 'NONE', ( #269, #201, #270, #208 ) ) ;
#311 = VECTOR ( 'NONE', #22, 39.37007874015748100 ) ;
#312 = VECTOR ( 'NONE', #48, 39.37007874015748100 ) ;
#313 = FACE_OUTER_BOUND ( 'NONE', #284, .T. ) ;
#314 = LINE ( 'NONE', #151, #244 ) ;
#315 = FACE_OUTER_BOUND ( 'NONE', #187, .T. ) ;
#316 = FACE_OUTER_BOUND ( 'NONE', #220, .T. ) ;
#317 = CYLINDRICAL_SURFACE ( 'NONE', #334, 0.08499999999999997800 ) ;
#318 = EDGE_LOOP ( 'NONE', ( #259, #281, #290, #246 ) ) ;
#319 = EDGE_CURVE ( 'NONE', #67, #34, #251, .T. ) ;
#320 = APPROVAL ( #53, 'UNSPECIFIED' ) ;
#321 = EDGE_CURVE ( 'NONE', #63, #64, #237, .T. ) ;
#322 = EDGE_CURVE ( 'NONE', #66, #68, #5, .T. ) ;
#323 = EDGE_CURVE ( 'NONE', #63, #37, #314, .T. ) ;
#324 = EDGE_CURVE ( 'NONE', #113, #65, #2, .T. ) ;
#325 = APPROVAL ( #105, 'UNSPECIFIED' ) ;
#326 = AXIS2_PLACEMENT_3D ( 'NONE', #121, #106, #52 ) ;
#327 = CC_DESIGN_PERSON_AND_ORGANIZATION_ASSIGNMENT ( #236, #91, ( #366 ) ) ;
#328 = EDGE_CURVE ( 'NONE', #126, #129, #185, .T. ) ;
#329 = AXIS2_PLACEMENT_3D ( 'NONE', #100, #99, #96 ) ;
#330 = CC_DESIGN_APPROVAL ( #320, ( #366 ) ) ;
#331 = AXIS2_PLACEMENT_3D ( 'NONE', #19, #24, #23 ) ;
#332 = AXIS2_PLACEMENT_3D ( 'NONE', #116, #58, #94 ) ;
#333 = PRODUCT_DEFINITION ( 'UNKNOWN', '', #366, #3 ) ;
#334 = AXIS2_PLACEMENT_3D ( 'NONE', #26, #17, #21 ) ;
#335 = CC_DESIGN_DATE_AND_TIME_ASSIGNMENT ( #224, #54, ( #333 ) ) ;
#336 = CC_DESIGN_PERSON_AND_ORGANIZATION_ASSIGNMENT ( #216, #86, ( #242 ) ) ;
#337 = APPROVAL ( #84, 'UNSPECIFIED' ) ;
#338 = AXIS2_PLACEMENT_3D ( 'NONE', #8, #10, #9 ) ;
#339 = CC_DESIGN_PERSON_AND_ORGANIZATION_ASSIGNMENT ( #191, #90, ( #366 ) ) ;
#340 = PRODUCT_RELATED_PRODUCT_CATEGORY ( 'detail', '', ( #161 ) ) ;
#341 = EDGE_CURVE ( 'NONE', #129, #126, #267, .T. ) ;
#342 = EDGE_CURVE ( 'NONE', #34, #67, #305, .T. ) ;
#343 = CC_DESIGN_DATE_AND_TIME_ASSIGNMENT ( #306, #85, ( #242 ) ) ;
#344 = AXIS2_PLACEMENT_3D ( 'NONE', #145, #29, #28 ) ;
#345 = EDGE_CURVE ( 'NONE', #37, #127, #214, .T. ) ;
#346 = AXIS2_PLACEMENT_3D ( 'NONE', #107, #104, #103 ) ;
#347 = EDGE_CURVE ( 'NONE', #72, #44, #308, .T. ) ;
#348 = CC_DESIGN_APPROVAL ( #337, ( #242 ) ) ;
#349 = EDGE_CURVE ( 'NONE', #44, #37, #231, .T. ) ;
#350 = EDGE_CURVE ( 'NONE', #68, #66, #6, .T. ) ;
#351 = EDGE_CURVE ( 'NONE', #67, #68, #245, .T. ) ;
#352 = EDGE_CURVE ( 'NONE', #34, #66, #295, .T. ) ;
#353 = EDGE_CURVE ( 'NONE', #64, #76, #177, .T. ) ;
#354 = EDGE_CURVE ( 'NONE', #127, #64, #282, .T. ) ;
#355 = EDGE_CURVE ( 'NONE', #72, #127, #235, .T. ) ;
#356 = CC_DESIGN_PERSON_AND_ORGANIZATION_ASSIGNMENT ( #164, #101, ( #161 ) ) ;
#357 = AXIS2_PLACEMENT_3D ( 'NONE', #123, #118, #119 ) ;
#358 = CC_DESIGN_APPROVAL ( #325, ( #333 ) ) ;
#359 = EDGE_CURVE ( 'NONE', #62, #44, #169, .T. ) ;
#360 = AXIS2_PLACEMENT_3D ( 'NONE', #81, #124, #125 ) ;
#361 = EDGE_CURVE ( 'NONE', #76, #62, #184, .T. ) ;
#362 = EDGE_CURVE ( 'NONE', #76, #72, #273, .T. ) ;
#363 = EDGE_CURVE ( 'NONE', #62, #63, #193, .T. ) ;
#364 = AXIS2_PLACEMENT_3D ( 'NONE', #158, #157, #156 ) ;
#365 = EDGE_CURVE ( 'NONE', #126, #65, #163, .T. ) ;
#366 = PRODUCT_DEFINITION_FORMATION_WITH_SPECIFIED_SOURCE ( 'ANY', '', #161, .NOT_KNOWN. ) ;
#367 = CC_DESIGN_PERSON_AND_ORGANIZATION_ASSIGNMENT ( #232, #50, ( #333 ) ) ;
#368 = AXIS2_PLACEMENT_3D ( 'NONE', #45, #70, #49 ) ;
#369 = AXIS2_PLACEMENT_3D ( 'NONE', #16, #15, #11 ) ;
#370 = EDGE_CURVE ( 'NONE', #129, #113, #256, .T. ) ;
#371 = CC_DESIGN_SECURITY_CLASSIFICATION ( #242, ( #366 ) ) ;
#372 = EDGE_CURVE ( 'NONE', #65, #113, #1, .T. ) ;
#373 = AXIS2_PLACEMENT_3D ( 'NONE', #30, #33, #32 ) ;
#374 = AXIS2_PLACEMENT_3D ( 'NONE', #61, #60, #109 ) ;
#375 = ADVANCED_BREP_SHAPE_REPRESENTATION ( 'D020313-v2_aLIGO_SUS_HSTS_Lower Blade Clamp, Lower Side, Angled 2.0', ( #376, #368 ), #189 ) ;
#376 = MANIFOLD_SOLID_BREP ( 'NONE', #212 ) ;
#377 = UNCERTAINTY_MEASURE_WITH_UNIT (LENGTH_MEASURE( 1.000000000000000100E-005 ), #88, 'distance_accuracy_value', 'NONE');
#378 = ADVANCED_FACE ( 'NONE', ( #249, #309, #315 ), #31, .T. ) ;
#379 = DIMENSIONAL_EXPONENTS ( 1.000000000000000000, 0.0000000000000000000, 0.0000000000000000000, 0.0000000000000000000, 0.0000000000000000000, 0.0000000000000000000, 0.0000000000000000000 ) ;
#380 = ADVANCED_FACE ( 'NONE', ( #274 ), #18, .T. ) ;
#381 = ADVANCED_FACE ( 'NONE', ( #313 ), #317, .F. ) ;
#382 = ADVANCED_FACE ( 'NONE', ( #316 ), #82, .T. ) ;
#383 = ADVANCED_FACE ( 'NONE', ( #293 ), #182, .F. ) ;
#384 = ADVANCED_FACE ( 'NONE', ( #278 ), #202, .F. ) ;
#385 = ADVANCED_FACE ( 'NONE', ( #205 ), #263, .F. ) ;
#386 = ADVANCED_FACE ( 'NONE', ( #297 ), #108, .F. ) ;
#387 = ADVANCED_FACE ( 'NONE', ( #307 ), #102, .T. ) ;
#388 = ADVANCED_FACE ( 'NONE', ( #195, #296, #176 ), #40, .F. ) ;
ENDSEC;
END-ISO-10303-21;
