ISO-10303-21;
HEADER;
FILE_DESCRIPTION (( 'STEP AP203' ),
    '1' );
FILE_NAME ('D030464-v2_aLIGO_SUS_HSTS_Upper Blade Clamp, Lower Side, Angled 2.5.STEP',
    '2010-06-23T20:59:53',
    ( 'Dwayne Giardina' ),
    ( 'CA Institute of Technology' ),
    'SwSTEP 2.0',
    'SolidWorks 2009',
    '' );
FILE_SCHEMA (( 'CONFIG_CONTROL_DESIGN' ));
ENDSEC;

DATA;
#1 = ADVANCED_FACE ( 'NONE', ( #313 ), #214, .T. ) ;
#2 = ADVANCED_FACE ( 'NONE', ( #318 ), #198, .T. ) ;
#3 = ADVANCED_FACE ( 'NONE', ( #317 ), #108, .F. ) ;
#4 = ADVANCED_FACE ( 'NONE', ( #316 ), #144, .T. ) ;
#5 = ADVANCED_FACE ( 'NONE', ( #321 ), #320, .F. ) ;
#6 = ADVANCED_FACE ( 'NONE', ( #319 ), #324, .F. ) ;
#7 = ADVANCED_FACE ( 'NONE', ( #323, #322, #327 ), #161, .F. ) ;
#8 = ADVANCED_FACE ( 'NONE', ( #326 ), #325, .F. ) ;
#9 = DIMENSIONAL_EXPONENTS ( 1.000000000000000000, 0.0000000000000000000, 0.0000000000000000000, 0.0000000000000000000, 0.0000000000000000000, 0.0000000000000000000, 0.0000000000000000000 ) ;
#10 = EDGE_CURVE ( 'NONE', #211, #207, #328, .T. ) ;
#11 = EDGE_CURVE ( 'NONE', #212, #204, #329, .T. ) ;
#12 = EDGE_CURVE ( 'NONE', #219, #210, #226, .T. ) ;
#13 = EDGE_CURVE ( 'NONE', #207, #211, #345, .T. ) ;
#14 = EDGE_CURVE ( 'NONE', #203, #212, #291, .T. ) ;
#15 = EDGE_CURVE ( 'NONE', #211, #210, #270, .T. ) ;
#16 = EDGE_CURVE ( 'NONE', #217, #201, #344, .T. ) ;
#17 = EDGE_CURVE ( 'NONE', #218, #203, #348, .T. ) ;
#18 = AXIS2_PLACEMENT_3D ( 'NONE', #166, #168, #119 ) ;
#19 = AXIS2_PLACEMENT_3D ( 'NONE', #191, #88, #136 ) ;
#20 = EDGE_CURVE ( 'NONE', #207, #219, #330, .T. ) ;
#21 = EDGE_CURVE ( 'NONE', #205, #202, #229, .T. ) ;
#22 = EDGE_CURVE ( 'NONE', #218, #208, #232, .T. ) ;
#23 = EDGE_CURVE ( 'NONE', #212, #202, #235, .T. ) ;
#24 = EDGE_CURVE ( 'NONE', #206, #216, #227, .T. ) ;
#25 = EDGE_CURVE ( 'NONE', #205, #208, #237, .T. ) ;
#26 = EDGE_CURVE ( 'NONE', #201, #217, #240, .T. ) ;
#27 = EDGE_CURVE ( 'NONE', #208, #209, #241, .T. ) ;
#28 = EDGE_CURVE ( 'NONE', #201, #216, #244, .T. ) ;
#29 = AXIS2_PLACEMENT_3D ( 'NONE', #150, #118, #159 ) ;
#30 = AXIS2_PLACEMENT_3D ( 'NONE', #99, #95, #127 ) ;
#31 = EDGE_CURVE ( 'NONE', #217, #206, #242, .T. ) ;
#32 = EDGE_CURVE ( 'NONE', #204, #209, #246, .T. ) ;
#33 = EDGE_CURVE ( 'NONE', #205, #204, #249, .T. ) ;
#34 = AXIS2_PLACEMENT_3D ( 'NONE', #213, #215, #200 ) ;
#35 = EDGE_CURVE ( 'NONE', #210, #219, #224, .T. ) ;
#36 = EDGE_CURVE ( 'NONE', #218, #202, #252, .T. ) ;
#37 = EDGE_CURVE ( 'NONE', #203, #209, #250, .T. ) ;
#38 = EDGE_CURVE ( 'NONE', #216, #206, #223, .T. ) ;
#39 = AXIS2_PLACEMENT_3D ( 'NONE', #122, #163, #117 ) ;
#40 = AXIS2_PLACEMENT_3D ( 'NONE', #124, #128, #175 ) ;
#41 = AXIS2_PLACEMENT_3D ( 'NONE', #133, #140, #165 ) ;
#42 = AXIS2_PLACEMENT_3D ( 'NONE', #199, #151, #146 ) ;
#43 = AXIS2_PLACEMENT_3D ( 'NONE', #157, #158, #169 ) ;
#44 = AXIS2_PLACEMENT_3D ( 'NONE', #123, #121, #130 ) ;
#45 = AXIS2_PLACEMENT_3D ( 'NONE', #154, #179, #177 ) ;
#46 = AXIS2_PLACEMENT_3D ( 'NONE', #114, #147, #70 ) ;
#47 = AXIS2_PLACEMENT_3D ( 'NONE', #113, #103, #145 ) ;
#48 = AXIS2_PLACEMENT_3D ( 'NONE', #66, #85, #86 ) ;
#49 = CC_DESIGN_PERSON_AND_ORGANIZATION_ASSIGNMENT ( #265, #80, ( #352 ) ) ;
#50 = PRODUCT_DEFINITION ( 'UNKNOWN', '', #55, #228 ) ;
#51 = APPROVAL ( #84, 'UNSPECIFIED' ) ;
#52 = CC_DESIGN_APPROVAL ( #51, ( #50 ) ) ;
#53 = CC_DESIGN_PERSON_AND_ORGANIZATION_ASSIGNMENT ( #271, #90, ( #50 ) ) ;
#54 = CC_DESIGN_DATE_AND_TIME_ASSIGNMENT ( #279, #92, ( #50 ) ) ;
#55 = PRODUCT_DEFINITION_FORMATION_WITH_SPECIFIED_SOURCE ( 'ANY', '', #352, .NOT_KNOWN. ) ;
#56 = APPROVAL ( #94, 'UNSPECIFIED' ) ;
#57 = CC_DESIGN_APPROVAL ( #56, ( #55 ) ) ;
#58 = CC_DESIGN_PERSON_AND_ORGANIZATION_ASSIGNMENT ( #283, #69, ( #55 ) ) ;
#59 = CC_DESIGN_PERSON_AND_ORGANIZATION_ASSIGNMENT ( #288, #91, ( #55 ) ) ;
#60 = CC_DESIGN_PERSON_AND_ORGANIZATION_ASSIGNMENT ( #286, #192, ( #287 ) ) ;
#61 = CC_DESIGN_DATE_AND_TIME_ASSIGNMENT ( #338, #188, ( #287 ) ) ;
#62 = APPROVAL ( #189, 'UNSPECIFIED' ) ;
#63 = CC_DESIGN_APPROVAL ( #62, ( #287 ) ) ;
#64 = CC_DESIGN_SECURITY_CLASSIFICATION ( #287, ( #55 ) ) ;
#65 = PRODUCT_RELATED_PRODUCT_CATEGORY ( 'detail', '', ( #352 ) ) ;
#66 = CARTESIAN_POINT ( 'NONE',  ( 0.0000000000000000000, 0.0000000000000000000, 0.0000000000000000000 ) ) ;
#67 = CARTESIAN_POINT ( 'NONE',  ( 0.3934999999999999100, 0.8632089878017565900, -0.5220000000000000200 ) ) ;
#68 = CARTESIAN_POINT ( 'NONE',  ( 0.7849999999999999200, 0.8860000000000000100, -0.7869999999999999200 ) ) ;
#69 = PERSON_AND_ORGANIZATION_ROLE ( 'creator' ) ;
#70 = DIRECTION ( 'NONE',  ( 0.0000000000000000000, 0.0000000000000000000, 1.000000000000000000 ) ) ;
#71 = MECHANICAL_CONTEXT ( 'NONE', #87, 'mechanical' ) ;
#72 = APPLICATION_PROTOCOL_DEFINITION ( 'international standard', 'config_control_design', 1994, #87 ) ;
#73 = SECURITY_CLASSIFICATION_LEVEL ( 'unclassified' ) ;
#74 = DIRECTION ( 'NONE',  ( -1.000000000000000000, -0.0000000000000000000, -0.0000000000000000000 ) ) ;
#75 = CARTESIAN_POINT ( 'NONE',  ( 0.3934999999999999100, 0.8744298501292441200, -0.2649999999999999600 ) ) ;
#76 = CARTESIAN_POINT ( 'NONE',  ( 0.1364999999999998700, 0.8744298501292444600, -0.2650000000000000100 ) ) ;
#77 = CARTESIAN_POINT ( 'NONE',  ( 0.1364999999999998700, 0.8632089878017565900, -0.5220000000000000200 ) ) ;
#78 = CARTESIAN_POINT ( 'NONE',  ( -0.7850000000000002500, 0.3937007874015748300, 0.0000000000000000000 ) ) ;
#79 = DIRECTION ( 'NONE',  ( -1.541674939991119000E-016, 1.000000000000000000, -0.0000000000000000000 ) ) ;
#80 = PERSON_AND_ORGANIZATION_ROLE ( 'design_owner' ) ;
#81 = APPLICATION_CONTEXT ( 'configuration controlled 3d designs of mechanical parts and assemblies' ) ;
#82 = APPLICATION_PROTOCOL_DEFINITION ( 'international standard', 'config_control_design', 1994, #81 ) ;
#83 = APPROVAL_ROLE ( '' ) ;
#84 = APPROVAL_STATUS ( 'not_yet_approved' ) ;
#85 = DIRECTION ( 'NONE',  ( 0.0000000000000000000, 0.0000000000000000000, 1.000000000000000000 ) ) ;
#86 = DIRECTION ( 'NONE',  ( 1.000000000000000000, 0.0000000000000000000, 0.0000000000000000000 ) ) ;
#87 = APPLICATION_CONTEXT ( 'configuration controlled 3d designs of mechanical parts and assemblies' ) ;
#88 = DIRECTION ( 'NONE',  ( 0.0000000000000000000, -1.000000000000000000, -0.0000000000000000000 ) ) ;
#89 = APPROVAL_ROLE ( '' ) ;
#90 = PERSON_AND_ORGANIZATION_ROLE ( 'creator' ) ;
#91 = PERSON_AND_ORGANIZATION_ROLE ( 'design_supplier' ) ;
#92 = DATE_TIME_ROLE ( 'creation_date' ) ;
#93 = APPROVAL_ROLE ( '' ) ;
#94 = APPROVAL_STATUS ( 'not_yet_approved' ) ;
#95 = DIRECTION ( 'NONE',  ( 0.0000000000000000000, -1.000000000000000000, -0.0000000000000000000 ) ) ;
#96 = CARTESIAN_POINT ( 'NONE',  ( -0.3935000000000000700, 0.8744298501292441200, -0.2649999999999998500 ) ) ;
#97 = CARTESIAN_POINT ( 'NONE',  ( 0.7849999999999999200, 0.8516388379310010400, -0.7869999999999999200 ) ) ;
#98 = CARTESIAN_POINT ( 'NONE',  ( 0.3934999999999999100, 0.8632089878017565900, -0.5220000000000000200 ) ) ;
#99 = CARTESIAN_POINT ( 'NONE',  ( -0.3935000000000000700, 0.3937007874015748300, -0.3934999999999999100 ) ) ;
#100 = DIRECTION ( 'NONE',  ( 0.0000000000000000000, 0.0000000000000000000, 1.000000000000000000 ) ) ;
#101 = CARTESIAN_POINT ( 'NONE',  ( 0.7850000000000002500, 0.3937007874015748300, -0.7870000000000001400 ) ) ;
#102 = CARTESIAN_POINT ( 'NONE',  ( 0.3934999999999999100, 0.8632089878017565900, -0.5220000000000000200 ) ) ;
#103 = DIRECTION ( 'NONE',  ( -0.0000000000000000000, 1.000000000000000000, 0.0000000000000000000 ) ) ;
#104 = CARTESIAN_POINT ( 'NONE',  ( 0.7849999999999999200, 0.8860000000000000100, 0.0000000000000000000 ) ) ;
#105 = CARTESIAN_POINT ( 'NONE',  ( 0.3934999999999999100, 0.3937007874015748300, -0.2649999999999999600 ) ) ;
#106 =( NAMED_UNIT ( * ) SI_UNIT ( $, .STERADIAN. ) SOLID_ANGLE_UNIT ( ) );
#107 =( CONVERSION_BASED_UNIT ( 'INCH', #259 ) LENGTH_UNIT ( ) NAMED_UNIT ( #9 ) );
#108 = PLANE ( 'NONE',  #44 ) ;
#109 = CARTESIAN_POINT ( 'NONE',  ( 0.7850000000000001400, 0.3937007874015748300, 0.0000000000000000000 ) ) ;
#110 = CARTESIAN_POINT ( 'NONE',  ( -0.7850000000000002500, 0.3937007874015748300, 0.0000000000000000000 ) ) ;
#111 = CARTESIAN_POINT ( 'NONE',  ( 0.3934999999999999100, 0.3937007874015748300, -0.5220000000000000200 ) ) ;
#112 = CARTESIAN_POINT ( 'NONE',  ( 0.7850000000000001400, 0.3937007874015748300, -0.7869999999999999200 ) ) ;
#113 = CARTESIAN_POINT ( 'NONE',  ( -0.7850000000000002500, 0.3937007874015748300, -2.442955629656165000 ) ) ;
#114 = CARTESIAN_POINT ( 'NONE',  ( -0.3935000000000000700, -0.1139999999999999300, -0.3934999999999999100 ) ) ;
#115 = CARTESIAN_POINT ( 'NONE',  ( -0.3935000000000000700, 0.3937007874015748300, -0.2649999999999998500 ) ) ;
#116 = CARTESIAN_POINT ( 'NONE',  ( -1.735000000000000500, 0.8516388379310005900, -0.7869999999999999200 ) ) ;
#117 = DIRECTION ( 'NONE',  ( 0.0000000000000000000, 0.0000000000000000000, 1.000000000000000000 ) ) ;
#118 = DIRECTION ( 'NONE',  ( -0.0000000000000000000, 1.000000000000000000, -0.0000000000000000000 ) ) ;
#119 = DIRECTION ( 'NONE',  ( 0.0000000000000000000, 0.0000000000000000000, 1.000000000000000000 ) ) ;
#120 = CARTESIAN_POINT ( 'NONE',  ( 0.3934999999999999100, 0.8744298501292441200, -0.2649999999999999600 ) ) ;
#121 = DIRECTION ( 'NONE',  ( 0.0000000000000000000, 0.0000000000000000000, -1.000000000000000000 ) ) ;
#122 = CARTESIAN_POINT ( 'NONE',  ( -0.3935000000000000700, -0.1139999999999999300, -0.3934999999999999100 ) ) ;
#123 = CARTESIAN_POINT ( 'NONE',  ( -0.7850000000000002500, -3.490128108393781000E-017, 0.0000000000000000000 ) ) ;
#124 = CARTESIAN_POINT ( 'NONE',  ( 0.3934999999999999100, -0.1139999999999999300, -0.3934999999999999600 ) ) ;
#125 = CARTESIAN_POINT ( 'NONE',  ( 0.7849999999999999200, 0.8860000000000000100, 0.0000000000000000000 ) ) ;
#126 = CARTESIAN_POINT ( 'NONE',  ( -0.3935000000000000700, 0.8744298501292441200, -0.2649999999999998500 ) ) ;
#127 = DIRECTION ( 'NONE',  ( 0.0000000000000000000, 0.0000000000000000000, 1.000000000000000000 ) ) ;
#128 = DIRECTION ( 'NONE',  ( -0.0000000000000000000, 1.000000000000000000, -0.0000000000000000000 ) ) ;
#129 = CARTESIAN_POINT ( 'NONE',  ( -0.7850000000000002500, -9.613159877505664200E-017, -0.7869999999999999200 ) ) ;
#130 = DIRECTION ( 'NONE',  ( -1.000000000000000000, 0.0000000000000000000, 0.0000000000000000000 ) ) ;
#131 = CARTESIAN_POINT ( 'NONE',  ( -0.3935000000000000700, 0.8632089878017565900, -0.5220000000000000200 ) ) ;
#132 = CARTESIAN_POINT ( 'NONE',  ( -0.3935000000000000700, -0.1139999999999999300, -0.2649999999999998500 ) ) ;
#133 = CARTESIAN_POINT ( 'NONE',  ( -1.735000000000000500, 0.8859999999999996800, 0.0000000000000000000 ) ) ;
#134 = DIRECTION ( 'NONE',  ( -0.0000000000000000000, 1.000000000000000000, -0.0000000000000000000 ) ) ;
#135 = CARTESIAN_POINT ( 'NONE',  ( -0.7850000000000002500, 0.8860000000000000100, 0.0000000000000000000 ) ) ;
#136 = DIRECTION ( 'NONE',  ( 0.0000000000000000000, 0.0000000000000000000, 1.000000000000000000 ) ) ;
#137 = CARTESIAN_POINT ( 'NONE',  ( -0.1364999999999999300, 0.8744298501292444600, -0.2649999999999998500 ) ) ;
#138 = DIRECTION ( 'NONE',  ( 1.000000000000000000, 1.541674939991119000E-016, -0.0000000000000000000 ) ) ;
#139 = CARTESIAN_POINT ( 'NONE',  ( -0.7850000000000002500, 0.3937007874015748300, -0.7870000000000001400 ) ) ;
#140 = DIRECTION ( 'NONE',  ( 1.540207607055445000E-016, -0.9990482215818578000, 0.04361938736533605600 ) ) ;
#141 = DIRECTION ( 'NONE',  ( -1.000000000000000000, 0.0000000000000000000, 0.0000000000000000000 ) ) ;
#142 = CARTESIAN_POINT ( 'NONE',  ( -0.7850000000000002500, 0.3937007874015748300, -0.7870000000000001400 ) ) ;
#143 = CARTESIAN_POINT ( 'NONE',  ( -0.1364999999999999300, 0.8632089878017565900, -0.5220000000000000200 ) ) ;
#144 = PLANE ( 'NONE',  #43 ) ;
#145 = DIRECTION ( 'NONE',  ( 0.0000000000000000000, -0.0000000000000000000, 1.000000000000000000 ) ) ;
#146 = DIRECTION ( 'NONE',  ( -1.000000000000000000, 0.0000000000000000000, 0.0000000000000000000 ) ) ;
#147 = DIRECTION ( 'NONE',  ( -0.0000000000000000000, 1.000000000000000000, -0.0000000000000000000 ) ) ;
#148 = CARTESIAN_POINT ( 'NONE',  ( -0.7850000000000002500, 0.8500184664834393700, -0.8241126077363144500 ) ) ;
#149 = DIRECTION ( 'NONE',  ( 0.0000000000000000000, 0.04361938736533604900, 0.9990482215818576900 ) ) ;
#150 = CARTESIAN_POINT ( 'NONE',  ( 0.3934999999999999100, -0.1139999999999999300, -0.3934999999999999600 ) ) ;
#151 = DIRECTION ( 'NONE',  ( 0.0000000000000000000, 0.0000000000000000000, -1.000000000000000000 ) ) ;
#152 = CARTESIAN_POINT ( 'NONE',  ( -0.3935000000000000700, -0.1139999999999999300, -0.5220000000000000200 ) ) ;
#153 = DIRECTION ( 'NONE',  ( -0.0000000000000000000, -1.000000000000000000, -0.0000000000000000000 ) ) ;
#154 = CARTESIAN_POINT ( 'NONE',  ( 0.3934999999999999100, 0.3937007874015748300, -0.3934999999999999600 ) ) ;
#155 = CARTESIAN_POINT ( 'NONE',  ( -0.7850000000000002500, 0.8860000000000000100, 0.0000000000000000000 ) ) ;
#156 = CARTESIAN_POINT ( 'NONE',  ( -0.7850000000000002500, 0.8516388379310007000, -0.7869999999999999200 ) ) ;
#157 = CARTESIAN_POINT ( 'NONE',  ( -0.7850000000000002500, -9.613159877505664200E-017, -0.7869999999999999200 ) ) ;
#158 = DIRECTION ( 'NONE',  ( -1.000000000000000000, 0.0000000000000000000, 0.0000000000000000000 ) ) ;
#159 = DIRECTION ( 'NONE',  ( 0.0000000000000000000, 0.0000000000000000000, 1.000000000000000000 ) ) ;
#160 = DIRECTION ( 'NONE',  ( -1.000000000000000000, -0.0000000000000000000, -0.0000000000000000000 ) ) ;
#161 = PLANE ( 'NONE',  #41 ) ;
#162 =( LENGTH_UNIT ( ) NAMED_UNIT ( * ) SI_UNIT ( $, .METRE. ) );
#163 = DIRECTION ( 'NONE',  ( -0.0000000000000000000, 1.000000000000000000, -0.0000000000000000000 ) ) ;
#164 =( NAMED_UNIT ( * ) PLANE_ANGLE_UNIT ( ) SI_UNIT ( $, .RADIAN. ) );
#165 = DIRECTION ( 'NONE',  ( 0.0000000000000000000, -0.04361938736533604900, -0.9990482215818576900 ) ) ;
#166 = CARTESIAN_POINT ( 'NONE',  ( 0.3934999999999999100, 0.3937007874015748300, -0.3934999999999999600 ) ) ;
#167 = DIRECTION ( 'NONE',  ( -0.0000000000000000000, 1.000000000000000000, -0.0000000000000000000 ) ) ;
#168 = DIRECTION ( 'NONE',  ( 0.0000000000000000000, -1.000000000000000000, -0.0000000000000000000 ) ) ;
#169 = DIRECTION ( 'NONE',  ( 0.0000000000000000000, 0.0000000000000000000, 1.000000000000000000 ) ) ;
#170 = CARTESIAN_POINT ( 'NONE',  ( -0.3935000000000000700, 0.8632089878017565900, -0.5220000000000000200 ) ) ;
#171 = PLANE ( 'NONE',  #47 ) ;
#172 = CARTESIAN_POINT ( 'NONE',  ( -0.3935000000000000700, 0.3937007874015748300, -0.5220000000000000200 ) ) ;
#173 = CARTESIAN_POINT ( 'NONE',  ( 0.7849999999999999200, 0.8860000000000000100, 0.0000000000000000000 ) ) ;
#174 = DIRECTION ( 'NONE',  ( 0.0000000000000000000, -0.04361938736533604200, -0.9990482215818576900 ) ) ;
#175 = DIRECTION ( 'NONE',  ( 0.0000000000000000000, 0.0000000000000000000, 1.000000000000000000 ) ) ;
#176 = CARTESIAN_POINT ( 'NONE',  ( 0.3934999999999999100, 0.8744298501292441200, -0.2649999999999999600 ) ) ;
#177 = DIRECTION ( 'NONE',  ( 0.0000000000000000000, 0.0000000000000000000, 1.000000000000000000 ) ) ;
#178 = DIRECTION ( 'NONE',  ( -0.0000000000000000000, -0.0000000000000000000, 1.000000000000000000 ) ) ;
#179 = DIRECTION ( 'NONE',  ( 0.0000000000000000000, -1.000000000000000000, -0.0000000000000000000 ) ) ;
#180 = CARTESIAN_POINT ( 'NONE',  ( -0.7850000000000002500, 0.3937007874015748300, -2.442955629656165000 ) ) ;
#181 = DIRECTION ( 'NONE',  ( -0.0000000000000000000, 1.000000000000000000, -0.0000000000000000000 ) ) ;
#182 = CARTESIAN_POINT ( 'NONE',  ( 0.3934999999999999100, -0.1139999999999999300, -0.5220000000000000200 ) ) ;
#183 = CARTESIAN_POINT ( 'NONE',  ( -0.7850000000000002500, -9.613159877505664200E-017, 0.0000000000000000000 ) ) ;
#184 = DIRECTION ( 'NONE',  ( -0.0000000000000000000, -1.000000000000000000, -0.0000000000000000000 ) ) ;
#185 = CARTESIAN_POINT ( 'NONE',  ( 0.6504999999999999700, 0.8632089878017565900, -0.5220000000000000200 ) ) ;
#186 = DIRECTION ( 'NONE',  ( -1.541674939991119000E-016, 1.000000000000000000, -0.0000000000000000000 ) ) ;
#187 = CARTESIAN_POINT ( 'NONE',  ( 0.6504999999999999700, 0.8744298501292444600, -0.2650000000000000100 ) ) ;
#188 = DATE_TIME_ROLE ( 'classification_date' ) ;
#189 = APPROVAL_STATUS ( 'not_yet_approved' ) ;
#190 = CARTESIAN_POINT ( 'NONE',  ( 0.3934999999999999100, -0.1139999999999999300, -0.2649999999999999600 ) ) ;
#191 = CARTESIAN_POINT ( 'NONE',  ( -0.3935000000000000700, 0.3937007874015748300, -0.3934999999999999100 ) ) ;
#192 = PERSON_AND_ORGANIZATION_ROLE ( 'classification_officer' ) ;
#193 = CARTESIAN_POINT ( 'NONE',  ( -0.3935000000000000700, 0.8632089878017565900, -0.5220000000000000200 ) ) ;
#194 = CARTESIAN_POINT ( 'NONE',  ( -0.6505000000000001900, 0.8632089878017565900, -0.5220000000000000200 ) ) ;
#195 = CARTESIAN_POINT ( 'NONE',  ( -0.3935000000000000700, 0.8744298501292441200, -0.2649999999999998500 ) ) ;
#196 = CARTESIAN_POINT ( 'NONE',  ( -0.6505000000000001900, 0.8744298501292444600, -0.2649999999999998500 ) ) ;
#197 = DIRECTION ( 'NONE',  ( -0.0000000000000000000, 1.000000000000000000, -0.0000000000000000000 ) ) ;
#198 = PLANE ( 'NONE',  #42 ) ;
#199 = CARTESIAN_POINT ( 'NONE',  ( -0.7850000000000002500, -3.490128108393781000E-017, -0.7869999999999999200 ) ) ;
#200 = DIRECTION ( 'NONE',  ( -1.541674939991119000E-016, 1.000000000000000000, 0.0000000000000000000 ) ) ;
#201 = VERTEX_POINT ( 'NONE', #111 ) ;
#202 = VERTEX_POINT ( 'NONE', #97 ) ;
#203 = VERTEX_POINT ( 'NONE', #109 ) ;
#204 = VERTEX_POINT ( 'NONE', #135 ) ;
#205 = VERTEX_POINT ( 'NONE', #156 ) ;
#206 = VERTEX_POINT ( 'NONE', #120 ) ;
#207 = VERTEX_POINT ( 'NONE', #115 ) ;
#208 = VERTEX_POINT ( 'NONE', #139 ) ;
#209 = VERTEX_POINT ( 'NONE', #110 ) ;
#210 = VERTEX_POINT ( 'NONE', #170 ) ;
#211 = VERTEX_POINT ( 'NONE', #172 ) ;
#212 = VERTEX_POINT ( 'NONE', #104 ) ;
#213 = CARTESIAN_POINT ( 'NONE',  ( 0.7849999999999999200, 0.8860000000000000100, -0.7869999999999999200 ) ) ;
#214 = PLANE ( 'NONE',  #34 ) ;
#215 = DIRECTION ( 'NONE',  ( 1.000000000000000000, 1.541674939991119000E-016, -0.0000000000000000000 ) ) ;
#216 = VERTEX_POINT ( 'NONE', #98 ) ;
#217 = VERTEX_POINT ( 'NONE', #105 ) ;
#218 = VERTEX_POINT ( 'NONE', #101 ) ;
#219 = VERTEX_POINT ( 'NONE', #96 ) ;
#220 = UNCERTAINTY_MEASURE_WITH_UNIT (LENGTH_MEASURE( 1.000000000000000100E-005 ), #107, 'distance_accuracy_value', 'NONE');
#221 = ADVANCED_BREP_SHAPE_REPRESENTATION ( 'D030464-v2_aLIGO_SUS_HSTS_Upper Blade Clamp, Lower Side, Angled 2.5', ( #222, #48 ), #262 ) ;
#222 = MANIFOLD_SOLID_BREP ( 'NONE', #314 ) ;
#223 =( BOUNDED_CURVE ( )  B_SPLINE_CURVE ( 3, ( #67, #77, #76, #75 ),
 .UNSPECIFIED., .F., .T. ) 
 B_SPLINE_CURVE_WITH_KNOTS ( ( 4, 4 ),
 ( 3.141592653589789600, 6.283185307179582700 ),
 .UNSPECIFIED. ) 
 CURVE ( )  GEOMETRIC_REPRESENTATION_ITEM ( )  RATIONAL_B_SPLINE_CURVE ( ( 1.000000000000000000, 0.3333333333333333700, 0.3333333333333333700, 1.000000000000000000 ) ) 
 REPRESENTATION_ITEM ( '' )  );
#224 =( BOUNDED_CURVE ( )  B_SPLINE_CURVE ( 3, ( #193, #194, #196, #195 ),
 .UNSPECIFIED., .F., .T. ) 
 B_SPLINE_CURVE_WITH_KNOTS ( ( 4, 4 ),
 ( 3.141592653589789600, 6.283185307179582700 ),
 .UNSPECIFIED. ) 
 CURVE ( )  GEOMETRIC_REPRESENTATION_ITEM ( )  RATIONAL_B_SPLINE_CURVE ( ( 1.000000000000000000, 0.3333333333333333700, 0.3333333333333333700, 1.000000000000000000 ) ) 
 REPRESENTATION_ITEM ( '' )  );
#225 = PRODUCT_DEFINITION_SHAPE ( 'NONE', 'NONE',  #50 ) ;
#226 =( BOUNDED_CURVE ( )  B_SPLINE_CURVE ( 3, ( #126, #137, #143, #131 ),
 .UNSPECIFIED., .F., .T. ) 
 B_SPLINE_CURVE_WITH_KNOTS ( ( 4, 4 ),
 ( -3.552713678800500900E-015, 3.141592653589789600 ),
 .UNSPECIFIED. ) 
 CURVE ( )  GEOMETRIC_REPRESENTATION_ITEM ( )  RATIONAL_B_SPLINE_CURVE ( ( 1.000000000000000000, 0.3333333333333333700, 0.3333333333333333700, 1.000000000000000000 ) ) 
 REPRESENTATION_ITEM ( '' )  );
#227 =( BOUNDED_CURVE ( )  B_SPLINE_CURVE ( 3, ( #176, #187, #185, #102 ),
 .UNSPECIFIED., .F., .T. ) 
 B_SPLINE_CURVE_WITH_KNOTS ( ( 4, 4 ),
 ( -3.552713678800500900E-015, 3.141592653589789600 ),
 .UNSPECIFIED. ) 
 CURVE ( )  GEOMETRIC_REPRESENTATION_ITEM ( )  RATIONAL_B_SPLINE_CURVE ( ( 1.000000000000000000, 0.3333333333333333700, 0.3333333333333333700, 1.000000000000000000 ) ) 
 REPRESENTATION_ITEM ( '' )  );
#228 = DESIGN_CONTEXT ( 'detailed design', #81, 'design' ) ;
#229 = LINE ( 'NONE', #116, #233 ) ;
#230 = VECTOR ( 'NONE', #134, 39.37007874015748100 ) ;
#231 = VECTOR ( 'NONE', #141, 39.37007874015748100 ) ;
#232 = LINE ( 'NONE', #142, #231 ) ;
#233 = VECTOR ( 'NONE', #138, 39.37007874015748100 ) ;
#234 = VECTOR ( 'NONE', #174, 39.37007874015748900 ) ;
#235 = LINE ( 'NONE', #173, #234 ) ;
#236 = VECTOR ( 'NONE', #153, 39.37007874015748100 ) ;
#237 = LINE ( 'NONE', #129, #236 ) ;
#238 = VECTOR ( 'NONE', #160, 39.37007874015748100 ) ;
#239 = VECTOR ( 'NONE', #178, 39.37007874015748100 ) ;
#240 = CIRCLE ( 'NONE', #45, 0.1285000000000000000 ) ;
#241 = LINE ( 'NONE', #180, #239 ) ;
#242 = LINE ( 'NONE', #190, #247 ) ;
#243 = VECTOR ( 'NONE', #197, 39.37007874015748100 ) ;
#244 = LINE ( 'NONE', #182, #243 ) ;
#245 = VECTOR ( 'NONE', #184, 39.37007874015748100 ) ;
#246 = LINE ( 'NONE', #183, #245 ) ;
#247 = VECTOR ( 'NONE', #181, 39.37007874015748100 ) ;
#248 = VECTOR ( 'NONE', #149, 39.37007874015748100 ) ;
#249 = LINE ( 'NONE', #148, #248 ) ;
#250 = LINE ( 'NONE', #78, #254 ) ;
#251 = VECTOR ( 'NONE', #79, 39.37007874015748100 ) ;
#252 = LINE ( 'NONE', #68, #251 ) ;
#253 = FACE_OUTER_BOUND ( 'NONE', #385, .T. ) ;
#254 = VECTOR ( 'NONE', #74, 39.37007874015748100 ) ;
#255 = FACE_BOUND ( 'NONE', #369, .T. ) ;
#256 = FACE_OUTER_BOUND ( 'NONE', #359, .T. ) ;
#257 = CYLINDRICAL_SURFACE ( 'NONE', #46, 0.1285000000000000900 ) ;
#258 = FACE_BOUND ( 'NONE', #371, .T. ) ;
#259 = LENGTH_MEASURE_WITH_UNIT ( LENGTH_MEASURE( 0.02539999999999999900 ), #162 );
#260 = ORGANIZATION ( 'UNSPECIFIED', 'UNSPECIFIED', '' ) ;
#261 = SHAPE_DEFINITION_REPRESENTATION ( #225, #221 ) ;
#262 =( GEOMETRIC_REPRESENTATION_CONTEXT ( 3 ) GLOBAL_UNCERTAINTY_ASSIGNED_CONTEXT ( ( #220 ) ) GLOBAL_UNIT_ASSIGNED_CONTEXT ( ( #107, #164, #106 ) ) REPRESENTATION_CONTEXT ( 'NONE', 'WORKASPACE' ) );
#263 = APPROVAL_PERSON_ORGANIZATION ( #264, #51, #83 ) ;
#264 = PERSON_AND_ORGANIZATION ( #351, #260 ) ;
#265 = PERSON_AND_ORGANIZATION ( #351, #260 ) ;
#266 = VECTOR ( 'NONE', #186, 39.37007874015748100 ) ;
#267 = CALENDAR_DATE ( 2010, 23, 6 ) ;
#268 = LOCAL_TIME ( 15, 59, 53.00000000000000000, #269 ) ;
#269 = COORDINATED_UNIVERSAL_TIME_OFFSET ( 6, 0, .BEHIND. ) ;
#270 = LINE ( 'NONE', #152, #289 ) ;
#271 = PERSON_AND_ORGANIZATION ( #351, #260 ) ;
#272 = APPROVAL_DATE_TIME ( #273, #51 ) ;
#273 = DATE_AND_TIME ( #267, #268 ) ;
#274 = CALENDAR_DATE ( 2010, 23, 6 ) ;
#275 = LOCAL_TIME ( 15, 59, 53.00000000000000000, #276 ) ;
#276 = COORDINATED_UNIVERSAL_TIME_OFFSET ( 6, 0, .BEHIND. ) ;
#277 = APPROVAL_PERSON_ORGANIZATION ( #278, #56, #89 ) ;
#278 = PERSON_AND_ORGANIZATION ( #351, #260 ) ;
#279 = DATE_AND_TIME ( #274, #275 ) ;
#280 = CALENDAR_DATE ( 2010, 23, 6 ) ;
#281 = LOCAL_TIME ( 15, 59, 53.00000000000000000, #282 ) ;
#282 = COORDINATED_UNIVERSAL_TIME_OFFSET ( 6, 0, .BEHIND. ) ;
#283 = PERSON_AND_ORGANIZATION ( #351, #260 ) ;
#284 = APPROVAL_DATE_TIME ( #285, #56 ) ;
#285 = DATE_AND_TIME ( #280, #281 ) ;
#286 = PERSON_AND_ORGANIZATION ( #351, #260 ) ;
#287 = SECURITY_CLASSIFICATION ( '', '', #73 ) ;
#288 = PERSON_AND_ORGANIZATION ( #351, #260 ) ;
#289 = VECTOR ( 'NONE', #167, 39.37007874015748100 ) ;
#290 = COORDINATED_UNIVERSAL_TIME_OFFSET ( 6, 0, .BEHIND. ) ;
#291 = LINE ( 'NONE', #125, #266 ) ;
#292 = ORIENTED_EDGE ( 'NONE', *, *, #21, .F. ) ;
#293 = ORIENTED_EDGE ( 'NONE', *, *, #31, .T. ) ;
#294 = VECTOR ( 'NONE', #100, 39.37007874015748100 ) ;
#295 = ORIENTED_EDGE ( 'NONE', *, *, #15, .F. ) ;
#296 = ORIENTED_EDGE ( 'NONE', *, *, #32, .T. ) ;
#297 = ORIENTED_EDGE ( 'NONE', *, *, #27, .F. ) ;
#298 = ORIENTED_EDGE ( 'NONE', *, *, #36, .T. ) ;
#299 = ORIENTED_EDGE ( 'NONE', *, *, #20, .T. ) ;
#300 = ORIENTED_EDGE ( 'NONE', *, *, #10, .T. ) ;
#301 = ORIENTED_EDGE ( 'NONE', *, *, #14, .F. ) ;
#302 = ORIENTED_EDGE ( 'NONE', *, *, #12, .T. ) ;
#303 = ORIENTED_EDGE ( 'NONE', *, *, #37, .F. ) ;
#304 = ORIENTED_EDGE ( 'NONE', *, *, #25, .F. ) ;
#305 = ORIENTED_EDGE ( 'NONE', *, *, #14, .T. ) ;
#306 = ORIENTED_EDGE ( 'NONE', *, *, #11, .T. ) ;
#307 = ORIENTED_EDGE ( 'NONE', *, *, #10, .F. ) ;
#308 = ORIENTED_EDGE ( 'NONE', *, *, #12, .F. ) ;
#309 = ORIENTED_EDGE ( 'NONE', *, *, #23, .F. ) ;
#310 = ORIENTED_EDGE ( 'NONE', *, *, #16, .F. ) ;
#311 = ORIENTED_EDGE ( 'NONE', *, *, #26, .F. ) ;
#312 = ORIENTED_EDGE ( 'NONE', *, *, #13, .F. ) ;
#313 = FACE_OUTER_BOUND ( 'NONE', #374, .T. ) ;
#314 = CLOSED_SHELL ( 'NONE', ( #8, #349, #4, #1, #2, #3, #5, #6, #7, #350 ) ) ;
#315 = ORIENTED_EDGE ( 'NONE', *, *, #35, .F. ) ;
#316 = FACE_OUTER_BOUND ( 'NONE', #375, .T. ) ;
#317 = FACE_OUTER_BOUND ( 'NONE', #372, .T. ) ;
#318 = FACE_OUTER_BOUND ( 'NONE', #368, .T. ) ;
#319 = FACE_OUTER_BOUND ( 'NONE', #366, .T. ) ;
#320 = CYLINDRICAL_SURFACE ( 'NONE', #39, 0.1285000000000000900 ) ;
#321 = FACE_OUTER_BOUND ( 'NONE', #355, .T. ) ;
#322 = FACE_BOUND ( 'NONE', #370, .T. ) ;
#323 = FACE_OUTER_BOUND ( 'NONE', #367, .T. ) ;
#324 = CYLINDRICAL_SURFACE ( 'NONE', #29, 0.1285000000000000000 ) ;
#325 = CYLINDRICAL_SURFACE ( 'NONE', #40, 0.1285000000000000000 ) ;
#326 = FACE_OUTER_BOUND ( 'NONE', #357, .T. ) ;
#327 = FACE_BOUND ( 'NONE', #383, .T. ) ;
#328 = CIRCLE ( 'NONE', #19, 0.1285000000000000900 ) ;
#329 = LINE ( 'NONE', #155, #238 ) ;
#330 = LINE ( 'NONE', #132, #230 ) ;
#331 = ORIENTED_EDGE ( 'NONE', *, *, #36, .F. ) ;
#332 = CALENDAR_DATE ( 2010, 23, 6 ) ;
#333 = ORIENTED_EDGE ( 'NONE', *, *, #24, .T. ) ;
#334 = ORIENTED_EDGE ( 'NONE', *, *, #31, .F. ) ;
#335 = ORIENTED_EDGE ( 'NONE', *, *, #33, .T. ) ;
#336 = ORIENTED_EDGE ( 'NONE', *, *, #21, .T. ) ;
#337 = CALENDAR_DATE ( 2010, 23, 6 ) ;
#338 = DATE_AND_TIME ( #337, #346 ) ;
#339 = PERSON_AND_ORGANIZATION ( #351, #260 ) ;
#340 = APPROVAL_PERSON_ORGANIZATION ( #339, #62, #93 ) ;
#341 = APPROVAL_DATE_TIME ( #342, #62 ) ;
#342 = DATE_AND_TIME ( #332, #343 ) ;
#343 = LOCAL_TIME ( 15, 59, 53.00000000000000000, #290 ) ;
#344 = CIRCLE ( 'NONE', #18, 0.1285000000000000000 ) ;
#345 = CIRCLE ( 'NONE', #30, 0.1285000000000000900 ) ;
#346 = LOCAL_TIME ( 15, 59, 53.00000000000000000, #347 ) ;
#347 = COORDINATED_UNIVERSAL_TIME_OFFSET ( 6, 0, .BEHIND. ) ;
#348 = LINE ( 'NONE', #112, #294 ) ;
#349 = ADVANCED_FACE ( 'NONE', ( #253 ), #257, .F. ) ;
#350 = ADVANCED_FACE ( 'NONE', ( #256, #255, #258 ), #171, .F. ) ;
#351 = PERSON ( 'UNSPECIFIED', 'UNSPECIFIED', 'UNSPECIFIED', ('UNSPECIFIED'), ('UNSPECIFIED'), ('UNSPECIFIED') ) ;
#352 = PRODUCT ( 'D030464-v2_aLIGO_SUS_HSTS_Upper Blade Clamp, Lower Side, Angled 2.5', 'D030464-v2_aLIGO_SUS_HSTS_Upper Blade Clamp, Lower Side, Angled 2.5', '', ( #71 ) ) ;
#353 = ORIENTED_EDGE ( 'NONE', *, *, #23, .T. ) ;
#354 = ORIENTED_EDGE ( 'NONE', *, *, #28, .F. ) ;
#355 = EDGE_LOOP ( 'NONE', ( #295, #300, #299, #302 ) ) ;
#356 = ORIENTED_EDGE ( 'NONE', *, *, #13, .T. ) ;
#357 = EDGE_LOOP ( 'NONE', ( #382, #365, #387, #334 ) ) ;
#358 = ORIENTED_EDGE ( 'NONE', *, *, #35, .T. ) ;
#359 = EDGE_LOOP ( 'NONE', ( #373, #362, #297, #380 ) ) ;
#360 = ORIENTED_EDGE ( 'NONE', *, *, #20, .F. ) ;
#361 = ORIENTED_EDGE ( 'NONE', *, *, #33, .F. ) ;
#362 = ORIENTED_EDGE ( 'NONE', *, *, #37, .T. ) ;
#363 = ORIENTED_EDGE ( 'NONE', *, *, #32, .F. ) ;
#364 = ORIENTED_EDGE ( 'NONE', *, *, #27, .T. ) ;
#365 = ORIENTED_EDGE ( 'NONE', *, *, #28, .T. ) ;
#366 = EDGE_LOOP ( 'NONE', ( #354, #386, #293, #333 ) ) ;
#367 = EDGE_LOOP ( 'NONE', ( #335, #388, #353, #292 ) ) ;
#368 = EDGE_LOOP ( 'NONE', ( #377, #304, #336, #331 ) ) ;
#369 = EDGE_LOOP ( 'NONE', ( #310, #311 ) ) ;
#370 = EDGE_LOOP ( 'NONE', ( #378, #384 ) ) ;
#371 = EDGE_LOOP ( 'NONE', ( #312, #307 ) ) ;
#372 = EDGE_LOOP ( 'NONE', ( #296, #303, #305, #306 ) ) ;
#373 = ORIENTED_EDGE ( 'NONE', *, *, #17, .T. ) ;
#374 = EDGE_LOOP ( 'NONE', ( #381, #298, #309, #301 ) ) ;
#375 = EDGE_LOOP ( 'NONE', ( #364, #363, #361, #379 ) ) ;
#376 = ORIENTED_EDGE ( 'NONE', *, *, #15, .T. ) ;
#377 = ORIENTED_EDGE ( 'NONE', *, *, #22, .T. ) ;
#378 = ORIENTED_EDGE ( 'NONE', *, *, #24, .F. ) ;
#379 = ORIENTED_EDGE ( 'NONE', *, *, #25, .T. ) ;
#380 = ORIENTED_EDGE ( 'NONE', *, *, #22, .F. ) ;
#381 = ORIENTED_EDGE ( 'NONE', *, *, #17, .F. ) ;
#382 = ORIENTED_EDGE ( 'NONE', *, *, #16, .T. ) ;
#383 = EDGE_LOOP ( 'NONE', ( #308, #315 ) ) ;
#384 = ORIENTED_EDGE ( 'NONE', *, *, #38, .F. ) ;
#385 = EDGE_LOOP ( 'NONE', ( #356, #376, #358, #360 ) ) ;
#386 = ORIENTED_EDGE ( 'NONE', *, *, #26, .T. ) ;
#387 = ORIENTED_EDGE ( 'NONE', *, *, #38, .T. ) ;
#388 = ORIENTED_EDGE ( 'NONE', *, *, #11, .F. ) ;
ENDSEC;
END-ISO-10303-21;
