ISO-10303-21;
HEADER;
FILE_DESCRIPTION (( 'STEP AP203' ),
    '1' );
FILE_NAME ('D030462-v2_aLIGO_SUS_HSTS_Upper Blade Clamp, Lower Side, Angled 1.5.STEP',
    '2010-06-23T20:10:40',
    ( 'Dwayne Giardina' ),
    ( 'CA Institute of Technology' ),
    'SwSTEP 2.0',
    'SolidWorks 2009',
    '' );
FILE_SCHEMA (( 'CONFIG_CONTROL_DESIGN' ));
ENDSEC;

DATA;
#1 = AXIS2_PLACEMENT_3D ( 'NONE', #369, #371, #372 ) ;
#2 = EDGE_CURVE ( 'NONE', #250, #339, #90, .T. ) ;
#3 = APPROVAL ( #322, 'UNSPECIFIED' ) ;
#4 = CC_DESIGN_SECURITY_CLASSIFICATION ( #101, ( #47 ) ) ;
#5 = EDGE_CURVE ( 'NONE', #309, #304, #184, .T. ) ;
#6 = AXIS2_PLACEMENT_3D ( 'NONE', #356, #381, #368 ) ;
#7 = AXIS2_PLACEMENT_3D ( 'NONE', #260, #251, #380 ) ;
#8 = CC_DESIGN_APPROVAL ( #46, ( #13 ) ) ;
#9 = CC_DESIGN_PERSON_AND_ORGANIZATION_ASSIGNMENT ( #80, #359, ( #47 ) ) ;
#10 = CC_DESIGN_APPROVAL ( #3, ( #47 ) ) ;
#11 = PRODUCT_RELATED_PRODUCT_CATEGORY ( 'detail', '', ( #58 ) ) ;
#12 = AXIS2_PLACEMENT_3D ( 'NONE', #278, #311, #269 ) ;
#13 = PRODUCT_DEFINITION ( 'UNKNOWN', '', #47, #387 ) ;
#14 = AXIS2_PLACEMENT_3D ( 'NONE', #302, #271, #301 ) ;
#15 = AXIS2_PLACEMENT_3D ( 'NONE', #362, #361, #268 ) ;
#16 = AXIS2_PLACEMENT_3D ( 'NONE', #315, #327, #291 ) ;
#17 = CC_DESIGN_PERSON_AND_ORGANIZATION_ASSIGNMENT ( #164, #360, ( #13 ) ) ;
#18 = CC_DESIGN_PERSON_AND_ORGANIZATION_ASSIGNMENT ( #134, #354, ( #47 ) ) ;
#19 = CC_DESIGN_DATE_AND_TIME_ASSIGNMENT ( #126, #237, ( #101 ) ) ;
#20 = AXIS2_PLACEMENT_3D ( 'NONE', #272, #335, #336 ) ;
#21 = AXIS2_PLACEMENT_3D ( 'NONE', #277, #239, #297 ) ;
#22 = CC_DESIGN_PERSON_AND_ORGANIZATION_ASSIGNMENT ( #128, #240, ( #101 ) ) ;
#23 = EDGE_CURVE ( 'NONE', #250, #334, #190, .T. ) ;
#24 = EDGE_CURVE ( 'NONE', #344, #286, #112, .T. ) ;
#25 = EDGE_CURVE ( 'NONE', #309, #254, #76, .T. ) ;
#26 = EDGE_CURVE ( 'NONE', #266, #339, #386, .T. ) ;
#27 = EDGE_CURVE ( 'NONE', #307, #254, #187, .T. ) ;
#28 = EDGE_CURVE ( 'NONE', #350, #332, #120, .T. ) ;
#29 = EDGE_CURVE ( 'NONE', #292, #331, #383, .T. ) ;
#30 = EDGE_CURVE ( 'NONE', #331, #292, #385, .T. ) ;
#31 = EDGE_CURVE ( 'NONE', #304, #307, #201, .T. ) ;
#32 = EDGE_CURVE ( 'NONE', #350, #331, #107, .T. ) ;
#33 = EDGE_CURVE ( 'NONE', #309, #299, #200, .T. ) ;
#34 = EDGE_CURVE ( 'NONE', #286, #353, #169, .T. ) ;
#35 = EDGE_CURVE ( 'NONE', #344, #254, #165, .T. ) ;
#36 = EDGE_CURVE ( 'NONE', #334, #266, #207, .T. ) ;
#37 = EDGE_CURVE ( 'NONE', #304, #353, #175, .T. ) ;
#38 = EDGE_CURVE ( 'NONE', #307, #286, #180, .T. ) ;
#39 = AXIS2_PLACEMENT_3D ( 'NONE', #300, #358, #347 ) ;
#40 = APPROVAL ( #314, 'UNSPECIFIED' ) ;
#41 = CC_DESIGN_PERSON_AND_ORGANIZATION_ASSIGNMENT ( #228, #319, ( #58 ) ) ;
#42 = CC_DESIGN_DATE_AND_TIME_ASSIGNMENT ( #181, #316, ( #13 ) ) ;
#43 = AXIS2_PLACEMENT_3D ( 'NONE', #245, #253, #235 ) ;
#44 = EDGE_CURVE ( 'NONE', #344, #299, #173, .T. ) ;
#45 = AXIS2_PLACEMENT_3D ( 'NONE', #230, #296, #231 ) ;
#46 = APPROVAL ( #326, 'UNSPECIFIED' ) ;
#47 = PRODUCT_DEFINITION_FORMATION_WITH_SPECIFIED_SOURCE ( 'ANY', '', #58, .NOT_KNOWN. ) ;
#48 = CC_DESIGN_APPROVAL ( #40, ( #101 ) ) ;
#49 = EDGE_CURVE ( 'NONE', #299, #353, #170, .T. ) ;
#50 = EDGE_CURVE ( 'NONE', #334, #250, #135, .T. ) ;
#51 = EDGE_CURVE ( 'NONE', #332, #292, #178, .T. ) ;
#52 = EDGE_CURVE ( 'NONE', #332, #350, #211, .T. ) ;
#53 = AXIS2_PLACEMENT_3D ( 'NONE', #288, #305, #290 ) ;
#54 = AXIS2_PLACEMENT_3D ( 'NONE', #370, #234, #267 ) ;
#55 = AXIS2_PLACEMENT_3D ( 'NONE', #289, #270, #355 ) ;
#56 = EDGE_CURVE ( 'NONE', #339, #266, #384, .T. ) ;
#57 = PERSON ( 'UNSPECIFIED', 'UNSPECIFIED', 'UNSPECIFIED', ('UNSPECIFIED'), ('UNSPECIFIED'), ('UNSPECIFIED') ) ;
#58 = PRODUCT ( 'D030462-v2_aLIGO_SUS_HSTS_Upper Blade Clamp, Lower Side, Angled 1.5', 'D030462-v2_aLIGO_SUS_HSTS_Upper Blade Clamp, Lower Side, Angled 1.5', '', ( #320 ) ) ;
#59 = ADVANCED_BREP_SHAPE_REPRESENTATION ( 'D030462-v2_aLIGO_SUS_HSTS_Upper Blade Clamp, Lower Side, Angled 1.5', ( #61, #16 ), #137 ) ;
#60 = UNCERTAINTY_MEASURE_WITH_UNIT (LENGTH_MEASURE( 1.000000000000000100E-005 ), #341, 'distance_accuracy_value', 'NONE');
#61 = MANIFOLD_SOLID_BREP ( 'NONE', #96 ) ;
#62 = ADVANCED_FACE ( 'NONE', ( #118 ), #233, .T. ) ;
#63 = ADVANCED_FACE ( 'NONE', ( #153 ), #256, .F. ) ;
#64 = ADVANCED_FACE ( 'NONE', ( #168 ), #257, .T. ) ;
#65 = DIMENSIONAL_EXPONENTS ( 1.000000000000000000, 0.0000000000000000000, 0.0000000000000000000, 0.0000000000000000000, 0.0000000000000000000, 0.0000000000000000000, 0.0000000000000000000 ) ;
#66 = ADVANCED_FACE ( 'NONE', ( #150 ), #379, .T. ) ;
#67 = ADVANCED_FACE ( 'NONE', ( #149 ), #176, .F. ) ;
#68 = ADVANCED_FACE ( 'NONE', ( #199 ), #125, .F. ) ;
#69 = ADVANCED_FACE ( 'NONE', ( #191, #227, #225 ), #363, .F. ) ;
#70 = ADVANCED_FACE ( 'NONE', ( #224 ), #152, .F. ) ;
#71 = ADVANCED_FACE ( 'NONE', ( #220 ), #144, .F. ) ;
#72 = ADVANCED_FACE ( 'NONE', ( #132, #127, #223 ), #377, .F. ) ;
#73 = EDGE_LOOP ( 'NONE', ( #82, #222 ) ) ;
#74 = APPROVAL_DATE_TIME ( #94, #46 ) ;
#75 = CALENDAR_DATE ( 2010, 23, 6 ) ;
#76 = LINE ( 'NONE', #373, #203 ) ;
#77 = EDGE_LOOP ( 'NONE', ( #196, #84, #92, #147 ) ) ;
#78 = EDGE_LOOP ( 'NONE', ( #103, #160 ) ) ;
#79 = ORIENTED_EDGE ( 'NONE', *, *, #51, .T. ) ;
#80 = PERSON_AND_ORGANIZATION ( #57, #104 ) ;
#81 = LOCAL_TIME ( 15, 10, 40.00000000000000000, #93 ) ;
#82 = ORIENTED_EDGE ( 'NONE', *, *, #29, .F. ) ;
#83 = APPROVAL_PERSON_ORGANIZATION ( #97, #46, #284 ) ;
#84 = ORIENTED_EDGE ( 'NONE', *, *, #37, .F. ) ;
#85 = ORIENTED_EDGE ( 'NONE', *, *, #33, .T. ) ;
#86 = EDGE_LOOP ( 'NONE', ( #113, #195, #192, #146 ) ) ;
#87 = DATE_AND_TIME ( #115, #159 ) ;
#88 = ORIENTED_EDGE ( 'NONE', *, *, #25, .F. ) ;
#89 = ORIENTED_EDGE ( 'NONE', *, *, #26, .T. ) ;
#90 = LINE ( 'NONE', #248, #189 ) ;
#91 = VECTOR ( 'NONE', #308, 39.37007874015748100 ) ;
#92 = ORIENTED_EDGE ( 'NONE', *, *, #31, .T. ) ;
#93 = COORDINATED_UNIVERSAL_TIME_OFFSET ( 6, 0, .BEHIND. ) ;
#94 = DATE_AND_TIME ( #148, #136 ) ;
#95 = PERSON_AND_ORGANIZATION ( #57, #104 ) ;
#96 = CLOSED_SHELL ( 'NONE', ( #67, #71, #62, #64, #66, #63, #68, #70, #69, #72 ) ) ;
#97 = PERSON_AND_ORGANIZATION ( #57, #104 ) ;
#98 = APPROVAL_PERSON_ORGANIZATION ( #95, #3, #364 ) ;
#99 = ORIENTED_EDGE ( 'NONE', *, *, #36, .T. ) ;
#100 = VECTOR ( 'NONE', #324, 39.37007874015748100 ) ;
#101 = SECURITY_CLASSIFICATION ( '', '', #365 ) ;
#102 = VECTOR ( 'NONE', #330, 39.37007874015748100 ) ;
#103 = ORIENTED_EDGE ( 'NONE', *, *, #50, .F. ) ;
#104 = ORGANIZATION ( 'UNSPECIFIED', 'UNSPECIFIED', '' ) ;
#105 = ORIENTED_EDGE ( 'NONE', *, *, #56, .F. ) ;
#106 = ORIENTED_EDGE ( 'NONE', *, *, #38, .F. ) ;
#107 = LINE ( 'NONE', #243, #221 ) ;
#108 = ORIENTED_EDGE ( 'NONE', *, *, #37, .T. ) ;
#109 = ORIENTED_EDGE ( 'NONE', *, *, #49, .F. ) ;
#110 = ORIENTED_EDGE ( 'NONE', *, *, #5, .F. ) ;
#111 = ORIENTED_EDGE ( 'NONE', *, *, #28, .F. ) ;
#112 = LINE ( 'NONE', #329, #210 ) ;
#113 = ORIENTED_EDGE ( 'NONE', *, *, #50, .T. ) ;
#114 = EDGE_LOOP ( 'NONE', ( #209, #186, #179, #197 ) ) ;
#115 = CALENDAR_DATE ( 2010, 23, 6 ) ;
#116 = ORIENTED_EDGE ( 'NONE', *, *, #32, .F. ) ;
#117 = ORIENTED_EDGE ( 'NONE', *, *, #28, .T. ) ;
#118 = FACE_OUTER_BOUND ( 'NONE', #158, .T. ) ;
#119 = EDGE_LOOP ( 'NONE', ( #116, #117, #79, #219 ) ) ;
#120 = CIRCLE ( 'NONE', #55, 0.1285000000000000000 ) ;
#121 = ORIENTED_EDGE ( 'NONE', *, *, #34, .F. ) ;
#122 = EDGE_LOOP ( 'NONE', ( #131, #216, #99, #89 ) ) ;
#123 = ORIENTED_EDGE ( 'NONE', *, *, #31, .F. ) ;
#124 = DATE_AND_TIME ( #177, #172 ) ;
#125 = CYLINDRICAL_SURFACE ( 'NONE', #1, 0.1285000000000000900 ) ;
#126 = DATE_AND_TIME ( #75, #81 ) ;
#127 = FACE_OUTER_BOUND ( 'NONE', #182, .T. ) ;
#128 = PERSON_AND_ORGANIZATION ( #57, #104 ) ;
#129 = LOCAL_TIME ( 15, 10, 40.00000000000000000, #133 ) ;
#130 = PERSON_AND_ORGANIZATION ( #57, #104 ) ;
#131 = ORIENTED_EDGE ( 'NONE', *, *, #2, .F. ) ;
#132 = FACE_BOUND ( 'NONE', #161, .T. ) ;
#133 = COORDINATED_UNIVERSAL_TIME_OFFSET ( 6, 0, .BEHIND. ) ;
#134 = PERSON_AND_ORGANIZATION ( #57, #104 ) ;
#135 = CIRCLE ( 'NONE', #53, 0.1285000000000000900 ) ;
#136 = LOCAL_TIME ( 15, 10, 40.00000000000000000, #226 ) ;
#137 =( GEOMETRIC_REPRESENTATION_CONTEXT ( 3 ) GLOBAL_UNCERTAINTY_ASSIGNED_CONTEXT ( ( #60 ) ) GLOBAL_UNIT_ASSIGNED_CONTEXT ( ( #341, #283, #285 ) ) REPRESENTATION_CONTEXT ( 'NONE', 'WORKASPACE' ) );
#138 = VECTOR ( 'NONE', #275, 39.37007874015748100 ) ;
#139 = ORIENTED_EDGE ( 'NONE', *, *, #26, .F. ) ;
#140 = ORIENTED_EDGE ( 'NONE', *, *, #35, .T. ) ;
#141 = SHAPE_DEFINITION_REPRESENTATION ( #388, #59 ) ;
#142 = ORIENTED_EDGE ( 'NONE', *, *, #27, .T. ) ;
#143 = LENGTH_MEASURE_WITH_UNIT ( LENGTH_MEASURE( 0.02539999999999999900 ), #342 );
#144 = CYLINDRICAL_SURFACE ( 'NONE', #21, 0.1285000000000000900 ) ;
#145 = ORIENTED_EDGE ( 'NONE', *, *, #5, .T. ) ;
#146 = ORIENTED_EDGE ( 'NONE', *, *, #36, .F. ) ;
#147 = ORIENTED_EDGE ( 'NONE', *, *, #38, .T. ) ;
#148 = CALENDAR_DATE ( 2010, 23, 6 ) ;
#149 = FACE_OUTER_BOUND ( 'NONE', #114, .T. ) ;
#150 = FACE_OUTER_BOUND ( 'NONE', #218, .T. ) ;
#151 = APPROVAL_DATE_TIME ( #124, #3 ) ;
#152 = CYLINDRICAL_SURFACE ( 'NONE', #43, 0.1285000000000000000 ) ;
#153 = FACE_OUTER_BOUND ( 'NONE', #77, .T. ) ;
#154 = EDGE_LOOP ( 'NONE', ( #139, #105 ) ) ;
#155 = ORIENTED_EDGE ( 'NONE', *, *, #49, .T. ) ;
#156 = APPROVAL_DATE_TIME ( #87, #40 ) ;
#157 = CALENDAR_DATE ( 2010, 23, 6 ) ;
#158 = EDGE_LOOP ( 'NONE', ( #155, #121, #194, #162 ) ) ;
#159 = LOCAL_TIME ( 15, 10, 40.00000000000000000, #217 ) ;
#160 = ORIENTED_EDGE ( 'NONE', *, *, #23, .F. ) ;
#161 = EDGE_LOOP ( 'NONE', ( #185, #111 ) ) ;
#162 = ORIENTED_EDGE ( 'NONE', *, *, #44, .T. ) ;
#163 = VECTOR ( 'NONE', #340, 39.37007874015748100 ) ;
#164 = PERSON_AND_ORGANIZATION ( #57, #104 ) ;
#165 = LINE ( 'NONE', #338, #213 ) ;
#166 = ORIENTED_EDGE ( 'NONE', *, *, #24, .T. ) ;
#167 = EDGE_LOOP ( 'NONE', ( #166, #106, #142, #193 ) ) ;
#168 = FACE_OUTER_BOUND ( 'NONE', #188, .T. ) ;
#169 = LINE ( 'NONE', #343, #163 ) ;
#170 = LINE ( 'NONE', #246, #100 ) ;
#171 = ORIENTED_EDGE ( 'NONE', *, *, #44, .F. ) ;
#172 = LOCAL_TIME ( 15, 10, 40.00000000000000000, #206 ) ;
#173 = LINE ( 'NONE', #244, #138 ) ;
#174 = VECTOR ( 'NONE', #273, 39.37007874015748100 ) ;
#175 = LINE ( 'NONE', #232, #205 ) ;
#176 = CYLINDRICAL_SURFACE ( 'NONE', #39, 0.1285000000000000000 ) ;
#177 = CALENDAR_DATE ( 2010, 23, 6 ) ;
#178 = LINE ( 'NONE', #298, #102 ) ;
#179 = ORIENTED_EDGE ( 'NONE', *, *, #30, .T. ) ;
#180 = LINE ( 'NONE', #258, #174 ) ;
#181 = DATE_AND_TIME ( #157, #129 ) ;
#182 = EDGE_LOOP ( 'NONE', ( #145, #108, #109, #202 ) ) ;
#183 = ORIENTED_EDGE ( 'NONE', *, *, #25, .T. ) ;
#184 = LINE ( 'NONE', #264, #214 ) ;
#185 = ORIENTED_EDGE ( 'NONE', *, *, #52, .F. ) ;
#186 = ORIENTED_EDGE ( 'NONE', *, *, #32, .T. ) ;
#187 = LINE ( 'NONE', #333, #212 ) ;
#188 = EDGE_LOOP ( 'NONE', ( #110, #183, #208, #123 ) ) ;
#189 = VECTOR ( 'NONE', #382, 39.37007874015748100 ) ;
#190 = CIRCLE ( 'NONE', #12, 0.1285000000000000900 ) ;
#191 = FACE_OUTER_BOUND ( 'NONE', #167, .T. ) ;
#192 = ORIENTED_EDGE ( 'NONE', *, *, #56, .T. ) ;
#193 = ORIENTED_EDGE ( 'NONE', *, *, #35, .F. ) ;
#194 = ORIENTED_EDGE ( 'NONE', *, *, #24, .F. ) ;
#195 = ORIENTED_EDGE ( 'NONE', *, *, #2, .T. ) ;
#196 = ORIENTED_EDGE ( 'NONE', *, *, #34, .T. ) ;
#197 = ORIENTED_EDGE ( 'NONE', *, *, #51, .F. ) ;
#198 = VECTOR ( 'NONE', #345, 39.37007874015748100 ) ;
#199 = FACE_OUTER_BOUND ( 'NONE', #122, .T. ) ;
#200 = LINE ( 'NONE', #262, #198 ) ;
#201 = LINE ( 'NONE', #312, #91 ) ;
#202 = ORIENTED_EDGE ( 'NONE', *, *, #33, .F. ) ;
#203 = VECTOR ( 'NONE', #351, 39.37007874015748100 ) ;
#204 = APPROVAL_PERSON_ORGANIZATION ( #130, #40, #313 ) ;
#205 = VECTOR ( 'NONE', #282, 39.37007874015748100 ) ;
#206 = COORDINATED_UNIVERSAL_TIME_OFFSET ( 6, 0, .BEHIND. ) ;
#207 = LINE ( 'NONE', #323, #215 ) ;
#208 = ORIENTED_EDGE ( 'NONE', *, *, #27, .F. ) ;
#209 = ORIENTED_EDGE ( 'NONE', *, *, #52, .T. ) ;
#210 = VECTOR ( 'NONE', #328, 39.37007874015748100 ) ;
#211 = CIRCLE ( 'NONE', #6, 0.1285000000000000000 ) ;
#212 = VECTOR ( 'NONE', #306, 39.37007874015748900 ) ;
#213 = VECTOR ( 'NONE', #276, 39.37007874015748100 ) ;
#214 = VECTOR ( 'NONE', #279, 39.37007874015748100 ) ;
#215 = VECTOR ( 'NONE', #274, 39.37007874015748100 ) ;
#216 = ORIENTED_EDGE ( 'NONE', *, *, #23, .T. ) ;
#217 = COORDINATED_UNIVERSAL_TIME_OFFSET ( 6, 0, .BEHIND. ) ;
#218 = EDGE_LOOP ( 'NONE', ( #85, #171, #140, #88 ) ) ;
#219 = ORIENTED_EDGE ( 'NONE', *, *, #29, .T. ) ;
#220 = FACE_OUTER_BOUND ( 'NONE', #86, .T. ) ;
#221 = VECTOR ( 'NONE', #265, 39.37007874015748100 ) ;
#222 = ORIENTED_EDGE ( 'NONE', *, *, #30, .F. ) ;
#223 = FACE_BOUND ( 'NONE', #78, .T. ) ;
#224 = FACE_OUTER_BOUND ( 'NONE', #119, .T. ) ;
#225 = FACE_BOUND ( 'NONE', #154, .T. ) ;
#226 = COORDINATED_UNIVERSAL_TIME_OFFSET ( 6, 0, .BEHIND. ) ;
#227 = FACE_BOUND ( 'NONE', #73, .T. ) ;
#228 = PERSON_AND_ORGANIZATION ( #57, #104 ) ;
#229 = CARTESIAN_POINT ( 'NONE',  ( 0.3934999999999999100, 0.8723309489408843700, -0.5220000000000000200 ) ) ;
#230 = CARTESIAN_POINT ( 'NONE',  ( -0.7850000000000002500, -9.613159877505664200E-017, -0.7869999999999999200 ) ) ;
#231 = DIRECTION ( 'NONE',  ( 0.0000000000000000000, 0.0000000000000000000, 1.000000000000000000 ) ) ;
#232 = CARTESIAN_POINT ( 'NONE',  ( -0.7850000000000002500, 0.3937007874015748800, 0.0000000000000000000 ) ) ;
#233 = PLANE ( 'NONE',  #45 ) ;
#234 = DIRECTION ( 'NONE',  ( 0.0000000000000000000, 0.0000000000000000000, -1.000000000000000000 ) ) ;
#235 = DIRECTION ( 'NONE',  ( 0.0000000000000000000, 0.0000000000000000000, 1.000000000000000000 ) ) ;
#236 = CARTESIAN_POINT ( 'NONE',  ( -0.6505000000000000800, 0.8723309489408843700, -0.5220000000000000200 ) ) ;
#237 = DATE_TIME_ROLE ( 'classification_date' ) ;
#238 = CARTESIAN_POINT ( 'NONE',  ( 0.7850000000000001400, 0.3937007874015748800, -0.7869999999999998100 ) ) ;
#239 = DIRECTION ( 'NONE',  ( -0.0000000000000000000, 1.000000000000000000, -0.0000000000000000000 ) ) ;
#240 = PERSON_AND_ORGANIZATION_ROLE ( 'classification_officer' ) ;
#241 = CARTESIAN_POINT ( 'NONE',  ( 0.1365000000000000100, 0.8723309489408843700, -0.5220000000000000200 ) ) ;
#242 = CARTESIAN_POINT ( 'NONE',  ( 0.3934999999999999100, 0.8790607307841653600, -0.2649999999999999600 ) ) ;
#243 = CARTESIAN_POINT ( 'NONE',  ( 0.3934999999999999100, -0.1139999999999999300, -0.5220000000000000200 ) ) ;
#244 = CARTESIAN_POINT ( 'NONE',  ( -0.7850000000000002500, -9.613159877505664200E-017, -0.7869999999999999200 ) ) ;
#245 = CARTESIAN_POINT ( 'NONE',  ( 0.3934999999999999100, -0.1139999999999999300, -0.3934999999999999600 ) ) ;
#246 = CARTESIAN_POINT ( 'NONE',  ( -0.7850000000000002500, 0.3937007874015748800, -2.405610610987281900 ) ) ;
#247 = CARTESIAN_POINT ( 'NONE',  ( -0.7850000000000002500, 0.8860000000000000100, 0.0000000000000000000 ) ) ;
#248 = CARTESIAN_POINT ( 'NONE',  ( -0.3935000000000000700, -0.1139999999999999300, -0.5220000000000000200 ) ) ;
#249 = CARTESIAN_POINT ( 'NONE',  ( 0.1364999999999999500, 0.8790607307841654700, -0.2650000000000000100 ) ) ;
#250 = VERTEX_POINT ( 'NONE', #337 ) ;
#251 = DIRECTION ( 'NONE',  ( 1.000000000000000000, 1.541674939991119000E-016, -0.0000000000000000000 ) ) ;
#252 = CARTESIAN_POINT ( 'NONE',  ( 0.7850000000000001400, 0.3937007874015748800, 0.0000000000000000000 ) ) ;
#253 = DIRECTION ( 'NONE',  ( -0.0000000000000000000, 1.000000000000000000, -0.0000000000000000000 ) ) ;
#254 = VERTEX_POINT ( 'NONE', #376 ) ;
#255 = CARTESIAN_POINT ( 'NONE',  ( -0.3935000000000000700, 0.8790607307841653600, -0.2649999999999998500 ) ) ;
#256 = PLANE ( 'NONE',  #54 ) ;
#257 = PLANE ( 'NONE',  #7 ) ;
#258 = CARTESIAN_POINT ( 'NONE',  ( -0.7850000000000002500, 0.8860000000000000100, 0.0000000000000000000 ) ) ;
#259 = CARTESIAN_POINT ( 'NONE',  ( 0.3934999999999999100, 0.8723309489408843700, -0.5220000000000000200 ) ) ;
#260 = CARTESIAN_POINT ( 'NONE',  ( 0.7849999999999999200, 0.8860000000000000100, -0.7869999999999999200 ) ) ;
#261 = CARTESIAN_POINT ( 'NONE',  ( 0.3934999999999999100, 0.8790607307841653600, -0.2649999999999999600 ) ) ;
#262 = CARTESIAN_POINT ( 'NONE',  ( -0.7850000000000002500, 0.3937007874015748800, -0.7869999999999998100 ) ) ;
#263 = CARTESIAN_POINT ( 'NONE',  ( -0.7850000000000002500, 0.3937007874015748800, 0.0000000000000000000 ) ) ;
#264 = CARTESIAN_POINT ( 'NONE',  ( 0.7850000000000001400, 0.3937007874015748800, -2.405610610987281900 ) ) ;
#265 = DIRECTION ( 'NONE',  ( -0.0000000000000000000, 1.000000000000000000, -0.0000000000000000000 ) ) ;
#266 = VERTEX_POINT ( 'NONE', #366 ) ;
#267 = DIRECTION ( 'NONE',  ( -1.000000000000000000, 0.0000000000000000000, 0.0000000000000000000 ) ) ;
#268 = DIRECTION ( 'NONE',  ( 0.0000000000000000000, -0.02617694830787315900, -0.9996573249755572600 ) ) ;
#269 = DIRECTION ( 'NONE',  ( 0.0000000000000000000, 0.0000000000000000000, 1.000000000000000000 ) ) ;
#270 = DIRECTION ( 'NONE',  ( 0.0000000000000000000, -1.000000000000000000, -0.0000000000000000000 ) ) ;
#271 = DIRECTION ( 'NONE',  ( 0.0000000000000000000, 0.0000000000000000000, -1.000000000000000000 ) ) ;
#272 = CARTESIAN_POINT ( 'NONE',  ( -0.7850000000000002500, 0.3937007874015748800, -2.405610610987281900 ) ) ;
#273 = DIRECTION ( 'NONE',  ( -1.000000000000000000, -0.0000000000000000000, -0.0000000000000000000 ) ) ;
#274 = DIRECTION ( 'NONE',  ( -0.0000000000000000000, 1.000000000000000000, -0.0000000000000000000 ) ) ;
#275 = DIRECTION ( 'NONE',  ( -0.0000000000000000000, -1.000000000000000000, -0.0000000000000000000 ) ) ;
#276 = DIRECTION ( 'NONE',  ( 1.000000000000000000, 1.541674939991119000E-016, -0.0000000000000000000 ) ) ;
#277 = CARTESIAN_POINT ( 'NONE',  ( -0.3935000000000000700, -0.1139999999999999300, -0.3934999999999999100 ) ) ;
#278 = CARTESIAN_POINT ( 'NONE',  ( -0.3935000000000000700, 0.3937007874015748800, -0.3934999999999999100 ) ) ;
#279 = DIRECTION ( 'NONE',  ( -0.0000000000000000000, -0.0000000000000000000, 1.000000000000000000 ) ) ;
#280 = APPLICATION_CONTEXT ( 'configuration controlled 3d designs of mechanical parts and assemblies' ) ;
#281 = APPLICATION_PROTOCOL_DEFINITION ( 'international standard', 'config_control_design', 1994, #280 ) ;
#282 = DIRECTION ( 'NONE',  ( -1.000000000000000000, -0.0000000000000000000, -0.0000000000000000000 ) ) ;
#283 =( NAMED_UNIT ( * ) PLANE_ANGLE_UNIT ( ) SI_UNIT ( $, .RADIAN. ) );
#284 = APPROVAL_ROLE ( '' ) ;
#285 =( NAMED_UNIT ( * ) SI_UNIT ( $, .STERADIAN. ) SOLID_ANGLE_UNIT ( ) );
#286 = VERTEX_POINT ( 'NONE', #247 ) ;
#287 = CARTESIAN_POINT ( 'NONE',  ( -0.3935000000000000700, 0.8790607307841653600, -0.2649999999999998500 ) ) ;
#288 = CARTESIAN_POINT ( 'NONE',  ( -0.3935000000000000700, 0.3937007874015748800, -0.3934999999999999100 ) ) ;
#289 = CARTESIAN_POINT ( 'NONE',  ( 0.3934999999999999100, 0.3937007874015748800, -0.3934999999999999600 ) ) ;
#290 = DIRECTION ( 'NONE',  ( 0.0000000000000000000, 0.0000000000000000000, 1.000000000000000000 ) ) ;
#291 = DIRECTION ( 'NONE',  ( 1.000000000000000000, 0.0000000000000000000, 0.0000000000000000000 ) ) ;
#292 = VERTEX_POINT ( 'NONE', #242 ) ;
#293 = CARTESIAN_POINT ( 'NONE',  ( 0.6505000000000000800, 0.8723309489408844800, -0.5220000000000000200 ) ) ;
#294 = CARTESIAN_POINT ( 'NONE',  ( 0.3934999999999999100, 0.3937007874015748800, -0.2649999999999999600 ) ) ;
#295 = CARTESIAN_POINT ( 'NONE',  ( 0.3934999999999999100, 0.8723309489408843700, -0.5220000000000000200 ) ) ;
#296 = DIRECTION ( 'NONE',  ( -1.000000000000000000, 0.0000000000000000000, 0.0000000000000000000 ) ) ;
#297 = DIRECTION ( 'NONE',  ( 0.0000000000000000000, 0.0000000000000000000, 1.000000000000000000 ) ) ;
#298 = CARTESIAN_POINT ( 'NONE',  ( 0.3934999999999999100, -0.1139999999999999300, -0.2649999999999999600 ) ) ;
#299 = VERTEX_POINT ( 'NONE', #346 ) ;
#300 = CARTESIAN_POINT ( 'NONE',  ( 0.3934999999999999100, -0.1139999999999999300, -0.3934999999999999600 ) ) ;
#301 = DIRECTION ( 'NONE',  ( -1.000000000000000000, 0.0000000000000000000, 0.0000000000000000000 ) ) ;
#302 = CARTESIAN_POINT ( 'NONE',  ( -0.7850000000000002500, -3.490128108393781000E-017, -0.7869999999999999200 ) ) ;
#303 = CARTESIAN_POINT ( 'NONE',  ( -0.3935000000000000700, 0.8723309489408843700, -0.5220000000000000200 ) ) ;
#304 = VERTEX_POINT ( 'NONE', #252 ) ;
#305 = DIRECTION ( 'NONE',  ( 0.0000000000000000000, -1.000000000000000000, -0.0000000000000000000 ) ) ;
#306 = DIRECTION ( 'NONE',  ( 0.0000000000000000000, -0.02617694830787315900, -0.9996573249755572600 ) ) ;
#307 = VERTEX_POINT ( 'NONE', #349 ) ;
#308 = DIRECTION ( 'NONE',  ( -1.541674939991119000E-016, 1.000000000000000000, -0.0000000000000000000 ) ) ;
#309 = VERTEX_POINT ( 'NONE', #238 ) ;
#310 = CARTESIAN_POINT ( 'NONE',  ( -0.3935000000000000700, 0.8723309489408843700, -0.5220000000000000200 ) ) ;
#311 = DIRECTION ( 'NONE',  ( 0.0000000000000000000, -1.000000000000000000, -0.0000000000000000000 ) ) ;
#312 = CARTESIAN_POINT ( 'NONE',  ( 0.7849999999999999200, 0.8860000000000000100, 0.0000000000000000000 ) ) ;
#313 = APPROVAL_ROLE ( '' ) ;
#314 = APPROVAL_STATUS ( 'not_yet_approved' ) ;
#315 = CARTESIAN_POINT ( 'NONE',  ( 0.0000000000000000000, 0.0000000000000000000, 0.0000000000000000000 ) ) ;
#316 = DATE_TIME_ROLE ( 'creation_date' ) ;
#317 = APPLICATION_CONTEXT ( 'configuration controlled 3d designs of mechanical parts and assemblies' ) ;
#318 = CARTESIAN_POINT ( 'NONE',  ( 0.3934999999999999100, 0.3937007874015748800, -0.5220000000000000200 ) ) ;
#319 = PERSON_AND_ORGANIZATION_ROLE ( 'design_owner' ) ;
#320 = MECHANICAL_CONTEXT ( 'NONE', #317, 'mechanical' ) ;
#321 = APPLICATION_PROTOCOL_DEFINITION ( 'international standard', 'config_control_design', 1994, #317 ) ;
#322 = APPROVAL_STATUS ( 'not_yet_approved' ) ;
#323 = CARTESIAN_POINT ( 'NONE',  ( -0.3935000000000000700, -0.1139999999999999300, -0.2649999999999998500 ) ) ;
#324 = DIRECTION ( 'NONE',  ( -0.0000000000000000000, -0.0000000000000000000, 1.000000000000000000 ) ) ;
#325 = CARTESIAN_POINT ( 'NONE',  ( 0.3934999999999999100, 0.8790607307841653600, -0.2649999999999999600 ) ) ;
#326 = APPROVAL_STATUS ( 'not_yet_approved' ) ;
#327 = DIRECTION ( 'NONE',  ( 0.0000000000000000000, 0.0000000000000000000, 1.000000000000000000 ) ) ;
#328 = DIRECTION ( 'NONE',  ( 0.0000000000000000000, 0.02617694830787315900, 0.9996573249755572600 ) ) ;
#329 = CARTESIAN_POINT ( 'NONE',  ( -0.7850000000000002500, 0.8647986851146776100, -0.8096455505415489600 ) ) ;
#330 = DIRECTION ( 'NONE',  ( -0.0000000000000000000, 1.000000000000000000, -0.0000000000000000000 ) ) ;
#331 = VERTEX_POINT ( 'NONE', #229 ) ;
#332 = VERTEX_POINT ( 'NONE', #294 ) ;
#333 = CARTESIAN_POINT ( 'NONE',  ( 0.7849999999999999200, 0.8860000000000000100, 0.0000000000000000000 ) ) ;
#334 = VERTEX_POINT ( 'NONE', #378 ) ;
#335 = DIRECTION ( 'NONE',  ( -0.0000000000000000000, 1.000000000000000000, 0.0000000000000000000 ) ) ;
#336 = DIRECTION ( 'NONE',  ( 0.0000000000000000000, -0.0000000000000000000, 1.000000000000000000 ) ) ;
#337 = CARTESIAN_POINT ( 'NONE',  ( -0.3935000000000000700, 0.3937007874015748800, -0.5220000000000000200 ) ) ;
#338 = CARTESIAN_POINT ( 'NONE',  ( -1.735000000000000500, 0.8653916797250494900, -0.7869999999999999200 ) ) ;
#339 = VERTEX_POINT ( 'NONE', #374 ) ;
#340 = DIRECTION ( 'NONE',  ( -0.0000000000000000000, -1.000000000000000000, -0.0000000000000000000 ) ) ;
#341 =( CONVERSION_BASED_UNIT ( 'INCH', #143 ) LENGTH_UNIT ( ) NAMED_UNIT ( #65 ) );
#342 =( LENGTH_UNIT ( ) NAMED_UNIT ( * ) SI_UNIT ( $, .METRE. ) );
#343 = CARTESIAN_POINT ( 'NONE',  ( -0.7850000000000002500, -9.613159877505664200E-017, 0.0000000000000000000 ) ) ;
#344 = VERTEX_POINT ( 'NONE', #375 ) ;
#345 = DIRECTION ( 'NONE',  ( -1.000000000000000000, 0.0000000000000000000, 0.0000000000000000000 ) ) ;
#346 = CARTESIAN_POINT ( 'NONE',  ( -0.7850000000000002500, 0.3937007874015748800, -0.7869999999999998100 ) ) ;
#347 = DIRECTION ( 'NONE',  ( 0.0000000000000000000, 0.0000000000000000000, 1.000000000000000000 ) ) ;
#348 = CARTESIAN_POINT ( 'NONE',  ( -0.6505000000000000800, 0.8790607307841654700, -0.2649999999999999000 ) ) ;
#349 = CARTESIAN_POINT ( 'NONE',  ( 0.7849999999999999200, 0.8860000000000000100, 0.0000000000000000000 ) ) ;
#350 = VERTEX_POINT ( 'NONE', #318 ) ;
#351 = DIRECTION ( 'NONE',  ( -1.541674939991119000E-016, 1.000000000000000000, -0.0000000000000000000 ) ) ;
#352 = CARTESIAN_POINT ( 'NONE',  ( -0.1364999999999997900, 0.8723309489408844800, -0.5220000000000000200 ) ) ;
#353 = VERTEX_POINT ( 'NONE', #263 ) ;
#354 = PERSON_AND_ORGANIZATION_ROLE ( 'creator' ) ;
#355 = DIRECTION ( 'NONE',  ( 0.0000000000000000000, 0.0000000000000000000, 1.000000000000000000 ) ) ;
#356 = CARTESIAN_POINT ( 'NONE',  ( 0.3934999999999999100, 0.3937007874015748800, -0.3934999999999999600 ) ) ;
#357 = CARTESIAN_POINT ( 'NONE',  ( 0.6505000000000000800, 0.8790607307841655800, -0.2649999999999998500 ) ) ;
#358 = DIRECTION ( 'NONE',  ( -0.0000000000000000000, 1.000000000000000000, -0.0000000000000000000 ) ) ;
#359 = PERSON_AND_ORGANIZATION_ROLE ( 'design_supplier' ) ;
#360 = PERSON_AND_ORGANIZATION_ROLE ( 'creator' ) ;
#361 = DIRECTION ( 'NONE',  ( 1.541146646493375000E-016, -0.9996573249755573700, 0.02617694830787316300 ) ) ;
#362 = CARTESIAN_POINT ( 'NONE',  ( -1.735000000000000500, 0.8859999999999996800, 0.0000000000000000000 ) ) ;
#363 = PLANE ( 'NONE',  #15 ) ;
#364 = APPROVAL_ROLE ( '' ) ;
#365 = SECURITY_CLASSIFICATION_LEVEL ( 'unclassified' ) ;
#366 = CARTESIAN_POINT ( 'NONE',  ( -0.3935000000000000700, 0.8790607307841653600, -0.2649999999999998500 ) ) ;
#367 = CARTESIAN_POINT ( 'NONE',  ( -0.1364999999999998200, 0.8790607307841655800, -0.2649999999999997900 ) ) ;
#368 = DIRECTION ( 'NONE',  ( 0.0000000000000000000, 0.0000000000000000000, 1.000000000000000000 ) ) ;
#369 = CARTESIAN_POINT ( 'NONE',  ( -0.3935000000000000700, -0.1139999999999999300, -0.3934999999999999100 ) ) ;
#370 = CARTESIAN_POINT ( 'NONE',  ( -0.7850000000000002500, -3.490128108393781000E-017, 0.0000000000000000000 ) ) ;
#371 = DIRECTION ( 'NONE',  ( -0.0000000000000000000, 1.000000000000000000, -0.0000000000000000000 ) ) ;
#372 = DIRECTION ( 'NONE',  ( 0.0000000000000000000, 0.0000000000000000000, 1.000000000000000000 ) ) ;
#373 = CARTESIAN_POINT ( 'NONE',  ( 0.7849999999999999200, 0.8860000000000000100, -0.7869999999999999200 ) ) ;
#374 = CARTESIAN_POINT ( 'NONE',  ( -0.3935000000000000700, 0.8723309489408843700, -0.5220000000000000200 ) ) ;
#375 = CARTESIAN_POINT ( 'NONE',  ( -0.7850000000000002500, 0.8653916797250497100, -0.7869999999999999200 ) ) ;
#376 = CARTESIAN_POINT ( 'NONE',  ( 0.7849999999999999200, 0.8653916797250499300, -0.7869999999999999200 ) ) ;
#377 = PLANE ( 'NONE',  #20 ) ;
#378 = CARTESIAN_POINT ( 'NONE',  ( -0.3935000000000000700, 0.3937007874015748800, -0.2649999999999998500 ) ) ;
#379 = PLANE ( 'NONE',  #14 ) ;
#380 = DIRECTION ( 'NONE',  ( -1.541674939991119000E-016, 1.000000000000000000, 0.0000000000000000000 ) ) ;
#381 = DIRECTION ( 'NONE',  ( 0.0000000000000000000, -1.000000000000000000, -0.0000000000000000000 ) ) ;
#382 = DIRECTION ( 'NONE',  ( -0.0000000000000000000, 1.000000000000000000, -0.0000000000000000000 ) ) ;
#383 =( BOUNDED_CURVE ( )  B_SPLINE_CURVE ( 3, ( #261, #357, #293, #259 ),
 .UNSPECIFIED., .F., .T. ) 
 B_SPLINE_CURVE_WITH_KNOTS ( ( 4, 4 ),
 ( -6.217248937900876600E-015, 3.141592653589787300 ),
 .UNSPECIFIED. ) 
 CURVE ( )  GEOMETRIC_REPRESENTATION_ITEM ( )  RATIONAL_B_SPLINE_CURVE ( ( 1.000000000000000000, 0.3333333333333332000, 0.3333333333333332000, 1.000000000000000000 ) ) 
 REPRESENTATION_ITEM ( '' )  );
#384 =( BOUNDED_CURVE ( )  B_SPLINE_CURVE ( 3, ( #310, #236, #348, #255 ),
 .UNSPECIFIED., .F., .T. ) 
 B_SPLINE_CURVE_WITH_KNOTS ( ( 4, 4 ),
 ( 3.141592653589787300, 6.283185307179580000 ),
 .UNSPECIFIED. ) 
 CURVE ( )  GEOMETRIC_REPRESENTATION_ITEM ( )  RATIONAL_B_SPLINE_CURVE ( ( 1.000000000000000000, 0.3333333333333335400, 0.3333333333333335400, 1.000000000000000000 ) ) 
 REPRESENTATION_ITEM ( '' )  );
#385 =( BOUNDED_CURVE ( )  B_SPLINE_CURVE ( 3, ( #295, #241, #249, #325 ),
 .UNSPECIFIED., .F., .T. ) 
 B_SPLINE_CURVE_WITH_KNOTS ( ( 4, 4 ),
 ( 3.141592653589787300, 6.283185307179580000 ),
 .UNSPECIFIED. ) 
 CURVE ( )  GEOMETRIC_REPRESENTATION_ITEM ( )  RATIONAL_B_SPLINE_CURVE ( ( 1.000000000000000000, 0.3333333333333335400, 0.3333333333333335400, 1.000000000000000000 ) ) 
 REPRESENTATION_ITEM ( '' )  );
#386 =( BOUNDED_CURVE ( )  B_SPLINE_CURVE ( 3, ( #287, #367, #352, #303 ),
 .UNSPECIFIED., .F., .F. ) 
 B_SPLINE_CURVE_WITH_KNOTS ( ( 4, 4 ),
 ( -6.217248937900876600E-015, 3.141592653589787300 ),
 .UNSPECIFIED. ) 
 CURVE ( )  GEOMETRIC_REPRESENTATION_ITEM ( )  RATIONAL_B_SPLINE_CURVE ( ( 1.000000000000000000, 0.3333333333333332000, 0.3333333333333332000, 1.000000000000000000 ) ) 
 REPRESENTATION_ITEM ( '' )  );
#387 = DESIGN_CONTEXT ( 'detailed design', #280, 'design' ) ;
#388 = PRODUCT_DEFINITION_SHAPE ( 'NONE', 'NONE',  #13 ) ;
ENDSEC;
END-ISO-10303-21;
