ISO-10303-21;
HEADER;
FILE_DESCRIPTION (( 'STEP AP203' ),
    '1' );
FILE_NAME ('D030461-v2_aLIGO_SUS_HSTS_Upper Blade Clamp, Lower Side, Angled 1.0.STEP',
    '2010-06-23T19:55:09',
    ( 'Dwayne Giardina' ),
    ( 'CA Institute of Technology' ),
    'SwSTEP 2.0',
    'SolidWorks 2009',
    '' );
FILE_SCHEMA (( 'CONFIG_CONTROL_DESIGN' ));
ENDSEC;

DATA;
#1 = DIRECTION ( 'NONE',  ( 0.0000000000000000000, 0.0000000000000000000, 1.000000000000000000 ) ) ;
#2 = CARTESIAN_POINT ( 'NONE',  ( -0.7850000000000002500, 0.8719971844170250100, -0.8022207674712221700 ) ) ;
#3 = DIRECTION ( 'NONE',  ( 0.0000000000000000000, 0.01745240643728368900, 0.9998476951563912700 ) ) ;
#4 = CARTESIAN_POINT ( 'NONE',  ( 0.3934999999999999100, 0.3937007874015748300, -0.3934999999999999600 ) ) ;
#5 = DIRECTION ( 'NONE',  ( 0.0000000000000000000, -1.000000000000000000, -0.0000000000000000000 ) ) ;
#6 = DIRECTION ( 'NONE',  ( 0.0000000000000000000, 0.0000000000000000000, 1.000000000000000000 ) ) ;
#7 = CARTESIAN_POINT ( 'NONE',  ( -0.7850000000000002500, 0.3937007874015748300, -2.405610610987281900 ) ) ;
#8 = DIRECTION ( 'NONE',  ( -0.0000000000000000000, -0.0000000000000000000, 1.000000000000000000 ) ) ;
#9 = CARTESIAN_POINT ( 'NONE',  ( -0.3935000000000000700, 0.8768884561074702400, -0.5220000000000000200 ) ) ;
#10 = CARTESIAN_POINT ( 'NONE',  ( -0.6505000000000000800, 0.8768884561074702400, -0.5220000000000000200 ) ) ;
#11 = CARTESIAN_POINT ( 'NONE',  ( -0.6505000000000000800, 0.8813744077940223200, -0.2649999999999998500 ) ) ;
#12 = CARTESIAN_POINT ( 'NONE',  ( -0.3935000000000000700, 0.8813744077940222100, -0.2649999999999998500 ) ) ;
#13 = CARTESIAN_POINT ( 'NONE',  ( 0.3934999999999999100, 0.8813744077940222100, -0.2649999999999999600 ) ) ;
#14 = CARTESIAN_POINT ( 'NONE',  ( 0.6504999999999999700, 0.8813744077940223200, -0.2650000000000000100 ) ) ;
#15 = CARTESIAN_POINT ( 'NONE',  ( 0.6504999999999999700, 0.8768884561074702400, -0.5220000000000000200 ) ) ;
#16 = CARTESIAN_POINT ( 'NONE',  ( 0.3934999999999999100, 0.8768884561074702400, -0.5220000000000000200 ) ) ;
#17 = CARTESIAN_POINT ( 'NONE',  ( -0.7850000000000002500, 0.3937007874015748300, -0.7869999999999998100 ) ) ;
#18 = DIRECTION ( 'NONE',  ( -1.000000000000000000, 0.0000000000000000000, 0.0000000000000000000 ) ) ;
#19 = CARTESIAN_POINT ( 'NONE',  ( -0.3935000000000000700, -0.1139999999999999300, -0.2649999999999998500 ) ) ;
#20 = DIRECTION ( 'NONE',  ( -0.0000000000000000000, 1.000000000000000000, -0.0000000000000000000 ) ) ;
#21 = CARTESIAN_POINT ( 'NONE',  ( -0.3935000000000000700, 0.3937007874015748300, -0.3934999999999999100 ) ) ;
#22 = DIRECTION ( 'NONE',  ( 0.0000000000000000000, -1.000000000000000000, -0.0000000000000000000 ) ) ;
#23 = DIRECTION ( 'NONE',  ( 0.0000000000000000000, 0.0000000000000000000, 1.000000000000000000 ) ) ;
#24 = CARTESIAN_POINT ( 'NONE',  ( 0.7850000000000001400, 0.3937007874015748300, -2.405610610987281900 ) ) ;
#25 = DIRECTION ( 'NONE',  ( -0.0000000000000000000, -0.0000000000000000000, 1.000000000000000000 ) ) ;
#26 = CARTESIAN_POINT ( 'NONE',  ( -0.7850000000000002500, -9.613159877505664200E-017, 0.0000000000000000000 ) ) ;
#27 = DIRECTION ( 'NONE',  ( -0.0000000000000000000, -1.000000000000000000, -0.0000000000000000000 ) ) ;
#28 = CARTESIAN_POINT ( 'NONE',  ( 0.3934999999999999100, 0.8768884561074702400, -0.5220000000000000200 ) ) ;
#29 = CARTESIAN_POINT ( 'NONE',  ( 0.1364999999999999300, 0.8768884561074702400, -0.5220000000000000200 ) ) ;
#30 = CARTESIAN_POINT ( 'NONE',  ( 0.1364999999999999300, 0.8813744077940223200, -0.2650000000000000100 ) ) ;
#31 = CARTESIAN_POINT ( 'NONE',  ( 0.3934999999999999100, 0.8813744077940222100, -0.2649999999999999600 ) ) ;
#32 = CARTESIAN_POINT ( 'NONE',  ( -0.3935000000000000700, -0.1139999999999999300, -0.5220000000000000200 ) ) ;
#33 = DIRECTION ( 'NONE',  ( -0.0000000000000000000, 1.000000000000000000, -0.0000000000000000000 ) ) ;
#34 = CARTESIAN_POINT ( 'NONE',  ( 0.7849999999999999200, 0.8860000000000000100, 0.0000000000000000000 ) ) ;
#35 = DIRECTION ( 'NONE',  ( 0.0000000000000000000, -0.01745240643728368900, -0.9998476951563912700 ) ) ;
#36 = CARTESIAN_POINT ( 'NONE',  ( 0.7849999999999999200, 0.8860000000000000100, 0.0000000000000000000 ) ) ;
#37 = DIRECTION ( 'NONE',  ( -1.541674939991119000E-016, 1.000000000000000000, -0.0000000000000000000 ) ) ;
#38 = CARTESIAN_POINT ( 'NONE',  ( -0.7850000000000002500, 0.3937007874015748300, 0.0000000000000000000 ) ) ;
#39 = DIRECTION ( 'NONE',  ( -1.000000000000000000, -0.0000000000000000000, -0.0000000000000000000 ) ) ;
#40 = CARTESIAN_POINT ( 'NONE',  ( 0.3934999999999999100, -0.1139999999999999300, -0.2649999999999999600 ) ) ;
#41 = DIRECTION ( 'NONE',  ( -0.0000000000000000000, 1.000000000000000000, -0.0000000000000000000 ) ) ;
#42 = CARTESIAN_POINT ( 'NONE',  ( -0.3935000000000000700, 0.3937007874015748300, -0.3934999999999999100 ) ) ;
#43 = DIRECTION ( 'NONE',  ( 0.0000000000000000000, -1.000000000000000000, -0.0000000000000000000 ) ) ;
#44 = DIRECTION ( 'NONE',  ( 0.0000000000000000000, 0.0000000000000000000, 1.000000000000000000 ) ) ;
#45 = CARTESIAN_POINT ( 'NONE',  ( 0.7849999999999999200, 0.8860000000000000100, -0.7869999999999999200 ) ) ;
#46 = DIRECTION ( 'NONE',  ( -1.541674939991119000E-016, 1.000000000000000000, -0.0000000000000000000 ) ) ;
#47 = CARTESIAN_POINT ( 'NONE',  ( -1.735000000000000500, 0.8722628639014922100, -0.7869999999999999200 ) ) ;
#48 = DIRECTION ( 'NONE',  ( 1.000000000000000000, 1.541674939991119000E-016, -0.0000000000000000000 ) ) ;
#49 = CARTESIAN_POINT ( 'NONE',  ( 0.3934999999999999100, -0.1139999999999999300, -0.5220000000000000200 ) ) ;
#50 = DIRECTION ( 'NONE',  ( -0.0000000000000000000, 1.000000000000000000, -0.0000000000000000000 ) ) ;
#51 = CARTESIAN_POINT ( 'NONE',  ( 0.7849999999999999200, 0.8860000000000000100, 0.0000000000000000000 ) ) ;
#52 = CARTESIAN_POINT ( 'NONE',  ( 0.3934999999999999100, 0.3937007874015748300, -0.2649999999999999600 ) ) ;
#53 = CARTESIAN_POINT ( 'NONE',  ( 0.3934999999999999100, 0.8813744077940222100, -0.2649999999999999600 ) ) ;
#54 = CARTESIAN_POINT ( 'NONE',  ( -0.7850000000000002500, 0.8860000000000000100, 0.0000000000000000000 ) ) ;
#55 = CARTESIAN_POINT ( 'NONE',  ( 0.3934999999999999100, 0.8768884561074702400, -0.5220000000000000200 ) ) ;
#56 = CARTESIAN_POINT ( 'NONE',  ( -0.7850000000000002500, 0.8722628639014924400, -0.7869999999999999200 ) ) ;
#57 = CARTESIAN_POINT ( 'NONE',  ( -0.3935000000000000700, 0.8768884561074702400, -0.5220000000000000200 ) ) ;
#58 = CARTESIAN_POINT ( 'NONE',  ( 0.7850000000000001400, 0.3937007874015748300, 0.0000000000000000000 ) ) ;
#59 = CARTESIAN_POINT ( 'NONE',  ( -0.3935000000000000700, 0.3937007874015748300, -0.2649999999999998500 ) ) ;
#60 = CARTESIAN_POINT ( 'NONE',  ( -0.7850000000000002500, 0.3937007874015748300, 0.0000000000000000000 ) ) ;
#61 = CARTESIAN_POINT ( 'NONE',  ( 0.7849999999999999200, 0.8722628639014926600, -0.7869999999999999200 ) ) ;
#62 = CARTESIAN_POINT ( 'NONE',  ( -0.3935000000000000700, 0.8813744077940222100, -0.2649999999999998500 ) ) ;
#63 = CARTESIAN_POINT ( 'NONE',  ( 0.3934999999999999100, 0.3937007874015748300, -0.5220000000000000200 ) ) ;
#64 = CARTESIAN_POINT ( 'NONE',  ( -0.3935000000000000700, 0.3937007874015748300, -0.5220000000000000200 ) ) ;
#65 = CARTESIAN_POINT ( 'NONE',  ( 0.7850000000000001400, 0.3937007874015748300, -0.7869999999999998100 ) ) ;
#66 = CARTESIAN_POINT ( 'NONE',  ( -0.7850000000000002500, 0.3937007874015748300, -0.7869999999999998100 ) ) ;
#67 =( LENGTH_UNIT ( ) NAMED_UNIT ( * ) SI_UNIT ( $, .METRE. ) );
#68 =( CONVERSION_BASED_UNIT ( 'INCH', #169 ) LENGTH_UNIT ( ) NAMED_UNIT ( #255 ) );
#69 =( NAMED_UNIT ( * ) PLANE_ANGLE_UNIT ( ) SI_UNIT ( $, .RADIAN. ) );
#70 =( NAMED_UNIT ( * ) SI_UNIT ( $, .STERADIAN. ) SOLID_ANGLE_UNIT ( ) );
#71 = CARTESIAN_POINT ( 'NONE',  ( 0.0000000000000000000, 0.0000000000000000000, 0.0000000000000000000 ) ) ;
#72 = DIRECTION ( 'NONE',  ( 0.0000000000000000000, 0.0000000000000000000, 1.000000000000000000 ) ) ;
#73 = DIRECTION ( 'NONE',  ( 1.000000000000000000, 0.0000000000000000000, 0.0000000000000000000 ) ) ;
#74 = APPLICATION_CONTEXT ( 'configuration controlled 3d designs of mechanical parts and assemblies' ) ;
#75 = APPLICATION_PROTOCOL_DEFINITION ( 'international standard', 'config_control_design', 1994, #74 ) ;
#76 = MECHANICAL_CONTEXT ( 'NONE', #74, 'mechanical' ) ;
#77 = PERSON_AND_ORGANIZATION_ROLE ( 'design_owner' ) ;
#78 = APPLICATION_CONTEXT ( 'configuration controlled 3d designs of mechanical parts and assemblies' ) ;
#79 = APPLICATION_PROTOCOL_DEFINITION ( 'international standard', 'config_control_design', 1994, #78 ) ;
#80 = APPROVAL_STATUS ( 'not_yet_approved' ) ;
#81 = APPROVAL_ROLE ( '' ) ;
#82 = PERSON_AND_ORGANIZATION_ROLE ( 'creator' ) ;
#83 = DATE_TIME_ROLE ( 'creation_date' ) ;
#84 = APPROVAL_STATUS ( 'not_yet_approved' ) ;
#85 = APPROVAL_ROLE ( '' ) ;
#86 = PERSON_AND_ORGANIZATION_ROLE ( 'creator' ) ;
#87 = PERSON_AND_ORGANIZATION_ROLE ( 'design_supplier' ) ;
#88 = SECURITY_CLASSIFICATION_LEVEL ( 'unclassified' ) ;
#89 = PERSON_AND_ORGANIZATION_ROLE ( 'classification_officer' ) ;
#90 = DATE_TIME_ROLE ( 'classification_date' ) ;
#91 = APPROVAL_STATUS ( 'not_yet_approved' ) ;
#92 = APPROVAL_ROLE ( '' ) ;
#93 = FACE_BOUND ( 'NONE', #245, .T. ) ;
#94 = LOCAL_TIME ( 14, 55, 9.000000000000000000, #101 ) ;
#95 = FACE_OUTER_BOUND ( 'NONE', #239, .T. ) ;
#96 = LINE ( 'NONE', #7, #116 ) ;
#97 = VECTOR ( 'NONE', #360, 39.37007874015748100 ) ;
#98 = CYLINDRICAL_SURFACE ( 'NONE', #319, 0.1285000000000000000 ) ;
#99 = LINE ( 'NONE', #32, #186 ) ;
#100 = CYLINDRICAL_SURFACE ( 'NONE', #274, 0.1285000000000000900 ) ;
#101 = COORDINATED_UNIVERSAL_TIME_OFFSET ( 6, 0, .BEHIND. ) ;
#102 = VECTOR ( 'NONE', #25, 39.37007874015748100 ) ;
#103 = EDGE_LOOP ( 'NONE', ( #206, #199, #205, #241 ) ) ;
#104 = VECTOR ( 'NONE', #369, 39.37007874015748100 ) ;
#105 = VECTOR ( 'NONE', #3, 39.37007874015748100 ) ;
#106 = FACE_BOUND ( 'NONE', #136, .T. ) ;
#107 = LINE ( 'NONE', #24, #102 ) ;
#108 = FACE_OUTER_BOUND ( 'NONE', #172, .T. ) ;
#109 = LINE ( 'NONE', #49, #164 ) ;
#110 = VECTOR ( 'NONE', #20, 39.37007874015748100 ) ;
#111 = VECTOR ( 'NONE', #48, 39.37007874015748100 ) ;
#112 = EDGE_LOOP ( 'NONE', ( #217, #235 ) ) ;
#113 = LINE ( 'NONE', #47, #111 ) ;
#114 = VECTOR ( 'NONE', #41, 39.37007874015748100 ) ;
#115 = LOCAL_TIME ( 14, 55, 9.000000000000000000, #153 ) ;
#116 = VECTOR ( 'NONE', #8, 39.37007874015748100 ) ;
#117 = LINE ( 'NONE', #361, #97 ) ;
#118 = EDGE_LOOP ( 'NONE', ( #216, #226, #243, #215 ) ) ;
#119 = CALENDAR_DATE ( 2010, 23, 6 ) ;
#120 = EDGE_LOOP ( 'NONE', ( #220, #233, #197, #202 ) ) ;
#121 = APPROVAL_PERSON_ORGANIZATION ( #178, #285, #81 ) ;
#122 = LOCAL_TIME ( 14, 55, 9.000000000000000000, #125 ) ;
#123 = LINE ( 'NONE', #34, #139 ) ;
#124 = FACE_OUTER_BOUND ( 'NONE', #222, .T. ) ;
#125 = COORDINATED_UNIVERSAL_TIME_OFFSET ( 6, 0, .BEHIND. ) ;
#126 = EDGE_LOOP ( 'NONE', ( #221, #203, #208, #237 ) ) ;
#127 = PERSON_AND_ORGANIZATION ( #249, #145 ) ;
#128 = DATE_AND_TIME ( #119, #94 ) ;
#129 = LINE ( 'NONE', #17, #175 ) ;
#130 = FACE_OUTER_BOUND ( 'NONE', #103, .T. ) ;
#131 = FACE_OUTER_BOUND ( 'NONE', #126, .T. ) ;
#132 = LINE ( 'NONE', #19, #110 ) ;
#133 = CYLINDRICAL_SURFACE ( 'NONE', #272, 0.1285000000000000900 ) ;
#134 = VECTOR ( 'NONE', #37, 39.37007874015748100 ) ;
#135 = EDGE_LOOP ( 'NONE', ( #246, #213, #212, #201 ) ) ;
#136 = EDGE_LOOP ( 'NONE', ( #210, #234 ) ) ;
#137 = PERSON_AND_ORGANIZATION ( #249, #145 ) ;
#138 = CALENDAR_DATE ( 2010, 23, 6 ) ;
#139 = VECTOR ( 'NONE', #35, 39.37007874015748100 ) ;
#140 = FACE_OUTER_BOUND ( 'NONE', #120, .T. ) ;
#141 = CYLINDRICAL_SURFACE ( 'NONE', #313, 0.1285000000000000000 ) ;
#142 = LINE ( 'NONE', #358, #104 ) ;
#143 = DATE_AND_TIME ( #180, #189 ) ;
#144 = CALENDAR_DATE ( 2010, 23, 6 ) ;
#145 = ORGANIZATION ( 'UNSPECIFIED', 'UNSPECIFIED', '' ) ;
#146 = EDGE_LOOP ( 'NONE', ( #242, #198, #230, #229 ) ) ;
#147 = LINE ( 'NONE', #36, #134 ) ;
#148 = VECTOR ( 'NONE', #27, 39.37007874015748100 ) ;
#149 = LINE ( 'NONE', #38, #168 ) ;
#150 = CIRCLE ( 'NONE', #321, 0.1285000000000000900 ) ;
#151 = FACE_BOUND ( 'NONE', #194, .T. ) ;
#152 = SHAPE_DEFINITION_REPRESENTATION ( #268, #251 ) ;
#153 = COORDINATED_UNIVERSAL_TIME_OFFSET ( 6, 0, .BEHIND. ) ;
#154 = CALENDAR_DATE ( 2010, 23, 6 ) ;
#155 = FACE_BOUND ( 'NONE', #112, .T. ) ;
#156 = CIRCLE ( 'NONE', #281, 0.1285000000000000900 ) ;
#157 = LOCAL_TIME ( 14, 55, 9.000000000000000000, #170 ) ;
#158 = LINE ( 'NONE', #26, #148 ) ;
#159 = PERSON_AND_ORGANIZATION ( #249, #145 ) ;
#160 = LINE ( 'NONE', #45, #163 ) ;
#161 = LINE ( 'NONE', #2, #105 ) ;
#162 = FACE_OUTER_BOUND ( 'NONE', #118, .T. ) ;
#163 = VECTOR ( 'NONE', #46, 39.37007874015748100 ) ;
#164 = VECTOR ( 'NONE', #50, 39.37007874015748100 ) ;
#165 = CIRCLE ( 'NONE', #279, 0.1285000000000000000 ) ;
#166 = DATE_AND_TIME ( #138, #157 ) ;
#167 = PERSON_AND_ORGANIZATION ( #249, #145 ) ;
#168 = VECTOR ( 'NONE', #39, 39.37007874015748100 ) ;
#169 = LENGTH_MEASURE_WITH_UNIT ( LENGTH_MEASURE( 0.02539999999999999900 ), #67 );
#170 = COORDINATED_UNIVERSAL_TIME_OFFSET ( 6, 0, .BEHIND. ) ;
#171 = APPROVAL_DATE_TIME ( #192, #285 ) ;
#172 = EDGE_LOOP ( 'NONE', ( #244, #231, #247, #204 ) ) ;
#173 = FACE_OUTER_BOUND ( 'NONE', #227, .T. ) ;
#174 = COORDINATED_UNIVERSAL_TIME_OFFSET ( 6, 0, .BEHIND. ) ;
#175 = VECTOR ( 'NONE', #18, 39.37007874015748100 ) ;
#176 = APPROVAL_DATE_TIME ( #128, #303 ) ;
#177 = PERSON_AND_ORGANIZATION ( #249, #145 ) ;
#178 = PERSON_AND_ORGANIZATION ( #249, #145 ) ;
#179 = PERSON_AND_ORGANIZATION ( #249, #145 ) ;
#180 = CALENDAR_DATE ( 2010, 23, 6 ) ;
#181 =( GEOMETRIC_REPRESENTATION_CONTEXT ( 3 ) GLOBAL_UNCERTAINTY_ASSIGNED_CONTEXT ( ( #252 ) ) GLOBAL_UNIT_ASSIGNED_CONTEXT ( ( #68, #69, #70 ) ) REPRESENTATION_CONTEXT ( 'NONE', 'WORKASPACE' ) );
#182 = CIRCLE ( 'NONE', #280, 0.1285000000000000000 ) ;
#183 = APPROVAL_DATE_TIME ( #195, #317 ) ;
#184 = SECURITY_CLASSIFICATION ( '', '', #88 ) ;
#185 = PERSON_AND_ORGANIZATION ( #249, #145 ) ;
#186 = VECTOR ( 'NONE', #33, 39.37007874015748100 ) ;
#187 = FACE_OUTER_BOUND ( 'NONE', #135, .T. ) ;
#188 = APPROVAL_PERSON_ORGANIZATION ( #177, #303, #92 ) ;
#189 = LOCAL_TIME ( 14, 55, 9.000000000000000000, #174 ) ;
#190 = APPROVAL_PERSON_ORGANIZATION ( #167, #317, #85 ) ;
#191 = LINE ( 'NONE', #40, #114 ) ;
#192 = DATE_AND_TIME ( #154, #122 ) ;
#193 = FACE_OUTER_BOUND ( 'NONE', #146, .T. ) ;
#194 = EDGE_LOOP ( 'NONE', ( #214, #207 ) ) ;
#195 = DATE_AND_TIME ( #144, #115 ) ;
#196 = ORIENTED_EDGE ( 'NONE', *, *, #322, .T. ) ;
#197 = ORIENTED_EDGE ( 'NONE', *, *, #296, .T. ) ;
#198 = ORIENTED_EDGE ( 'NONE', *, *, #307, .T. ) ;
#199 = ORIENTED_EDGE ( 'NONE', *, *, #314, .F. ) ;
#200 = ORIENTED_EDGE ( 'NONE', *, *, #290, .T. ) ;
#201 = ORIENTED_EDGE ( 'NONE', *, *, #325, .F. ) ;
#202 = ORIENTED_EDGE ( 'NONE', *, *, #277, .T. ) ;
#203 = ORIENTED_EDGE ( 'NONE', *, *, #324, .T. ) ;
#204 = ORIENTED_EDGE ( 'NONE', *, *, #294, .F. ) ;
#205 = ORIENTED_EDGE ( 'NONE', *, *, #312, .T. ) ;
#206 = ORIENTED_EDGE ( 'NONE', *, *, #302, .T. ) ;
#207 = ORIENTED_EDGE ( 'NONE', *, *, #292, .F. ) ;
#208 = ORIENTED_EDGE ( 'NONE', *, *, #311, .F. ) ;
#209 = CLOSED_SHELL ( 'NONE', ( #263, #261, #264, #258, #262, #259, #260, #254, #257, #256 ) ) ;
#210 = ORIENTED_EDGE ( 'NONE', *, *, #297, .F. ) ;
#211 = ORIENTED_EDGE ( 'NONE', *, *, #294, .T. ) ;
#212 = ORIENTED_EDGE ( 'NONE', *, *, #311, .T. ) ;
#213 = ORIENTED_EDGE ( 'NONE', *, *, #286, .F. ) ;
#214 = ORIENTED_EDGE ( 'NONE', *, *, #277, .F. ) ;
#215 = ORIENTED_EDGE ( 'NONE', *, *, #322, .F. ) ;
#216 = ORIENTED_EDGE ( 'NONE', *, *, #288, .T. ) ;
#217 = ORIENTED_EDGE ( 'NONE', *, *, #293, .F. ) ;
#218 = ORIENTED_EDGE ( 'NONE', *, *, #326, .F. ) ;
#219 = ORIENTED_EDGE ( 'NONE', *, *, #302, .F. ) ;
#220 = ORIENTED_EDGE ( 'NONE', *, *, #307, .F. ) ;
#221 = ORIENTED_EDGE ( 'NONE', *, *, #298, .F. ) ;
#222 = EDGE_LOOP ( 'NONE', ( #211, #240, #248, #223 ) ) ;
#223 = ORIENTED_EDGE ( 'NONE', *, *, #324, .F. ) ;
#224 = ORIENTED_EDGE ( 'NONE', *, *, #288, .F. ) ;
#225 = ORIENTED_EDGE ( 'NONE', *, *, #287, .T. ) ;
#226 = ORIENTED_EDGE ( 'NONE', *, *, #326, .T. ) ;
#227 = EDGE_LOOP ( 'NONE', ( #218, #200, #196, #236 ) ) ;
#228 = ORIENTED_EDGE ( 'NONE', *, *, #291, .T. ) ;
#229 = ORIENTED_EDGE ( 'NONE', *, *, #296, .F. ) ;
#230 = ORIENTED_EDGE ( 'NONE', *, *, #292, .T. ) ;
#231 = ORIENTED_EDGE ( 'NONE', *, *, #314, .T. ) ;
#232 = ORIENTED_EDGE ( 'NONE', *, *, #290, .F. ) ;
#233 = ORIENTED_EDGE ( 'NONE', *, *, #323, .T. ) ;
#234 = ORIENTED_EDGE ( 'NONE', *, *, #323, .F. ) ;
#235 = ORIENTED_EDGE ( 'NONE', *, *, #304, .F. ) ;
#236 = ORIENTED_EDGE ( 'NONE', *, *, #293, .T. ) ;
#237 = ORIENTED_EDGE ( 'NONE', *, *, #312, .F. ) ;
#238 = ORIENTED_EDGE ( 'NONE', *, *, #289, .F. ) ;
#239 = EDGE_LOOP ( 'NONE', ( #228, #219, #238, #225 ) ) ;
#240 = ORIENTED_EDGE ( 'NONE', *, *, #287, .F. ) ;
#241 = ORIENTED_EDGE ( 'NONE', *, *, #286, .T. ) ;
#242 = ORIENTED_EDGE ( 'NONE', *, *, #297, .T. ) ;
#243 = ORIENTED_EDGE ( 'NONE', *, *, #304, .T. ) ;
#244 = ORIENTED_EDGE ( 'NONE', *, *, #298, .T. ) ;
#245 = EDGE_LOOP ( 'NONE', ( #224, #232 ) ) ;
#246 = ORIENTED_EDGE ( 'NONE', *, *, #289, .T. ) ;
#247 = ORIENTED_EDGE ( 'NONE', *, *, #291, .F. ) ;
#248 = ORIENTED_EDGE ( 'NONE', *, *, #325, .T. ) ;
#249 = PERSON ( 'UNSPECIFIED', 'UNSPECIFIED', 'UNSPECIFIED', ('UNSPECIFIED'), ('UNSPECIFIED'), ('UNSPECIFIED') ) ;
#250 = PRODUCT ( 'D030461-v2_aLIGO_SUS_HSTS_Upper Blade Clamp, Lower Side, Angled 1.0', 'D030461-v2_aLIGO_SUS_HSTS_Upper Blade Clamp, Lower Side, Angled 1.0', '', ( #76 ) ) ;
#251 = ADVANCED_BREP_SHAPE_REPRESENTATION ( 'D030461-v2_aLIGO_SUS_HSTS_Upper Blade Clamp, Lower Side, Angled 1.0', ( #253, #282 ), #181 ) ;
#252 = UNCERTAINTY_MEASURE_WITH_UNIT (LENGTH_MEASURE( 1.000000000000000100E-005 ), #68, 'distance_accuracy_value', 'NONE');
#253 = MANIFOLD_SOLID_BREP ( 'NONE', #209 ) ;
#254 = ADVANCED_FACE ( 'NONE', ( #173 ), #141, .F. ) ;
#255 = DIMENSIONAL_EXPONENTS ( 1.000000000000000000, 0.0000000000000000000, 0.0000000000000000000, 0.0000000000000000000, 0.0000000000000000000, 0.0000000000000000000, 0.0000000000000000000 ) ;
#256 = ADVANCED_FACE ( 'NONE', ( #93, #108, #106 ), #333, .F. ) ;
#257 = ADVANCED_FACE ( 'NONE', ( #187, #155, #151 ), #364, .F. ) ;
#258 = ADVANCED_FACE ( 'NONE', ( #131 ), #348, .T. ) ;
#259 = ADVANCED_FACE ( 'NONE', ( #130 ), #355, .F. ) ;
#260 = ADVANCED_FACE ( 'NONE', ( #140 ), #100, .F. ) ;
#261 = ADVANCED_FACE ( 'NONE', ( #193 ), #133, .F. ) ;
#262 = ADVANCED_FACE ( 'NONE', ( #124 ), #342, .T. ) ;
#263 = ADVANCED_FACE ( 'NONE', ( #162 ), #98, .F. ) ;
#264 = ADVANCED_FACE ( 'NONE', ( #95 ), #349, .T. ) ;
#265 =( BOUNDED_CURVE ( )  B_SPLINE_CURVE ( 3, ( #9, #10, #11, #12 ),
 .UNSPECIFIED., .F., .F. ) 
 B_SPLINE_CURVE_WITH_KNOTS ( ( 4, 4 ),
 ( 3.141592653589784200, 6.283185307179577400 ),
 .UNSPECIFIED. ) 
 CURVE ( )  GEOMETRIC_REPRESENTATION_ITEM ( )  RATIONAL_B_SPLINE_CURVE ( ( 1.000000000000000000, 0.3333333333333333700, 0.3333333333333333700, 1.000000000000000000 ) ) 
 REPRESENTATION_ITEM ( '' )  );
#266 =( BOUNDED_CURVE ( )  B_SPLINE_CURVE ( 3, ( #13, #14, #15, #16 ),
 .UNSPECIFIED., .F., .T. ) 
 B_SPLINE_CURVE_WITH_KNOTS ( ( 4, 4 ),
 ( -8.881784197001252300E-015, 3.141592653589784200 ),
 .UNSPECIFIED. ) 
 CURVE ( )  GEOMETRIC_REPRESENTATION_ITEM ( )  RATIONAL_B_SPLINE_CURVE ( ( 1.000000000000000000, 0.3333333333333333700, 0.3333333333333333700, 1.000000000000000000 ) ) 
 REPRESENTATION_ITEM ( '' )  );
#267 =( BOUNDED_CURVE ( )  B_SPLINE_CURVE ( 3, ( #371, #368, #367, #363 ),
 .UNSPECIFIED., .F., .T. ) 
 B_SPLINE_CURVE_WITH_KNOTS ( ( 4, 4 ),
 ( -8.881784197001252300E-015, 3.141592653589784200 ),
 .UNSPECIFIED. ) 
 CURVE ( )  GEOMETRIC_REPRESENTATION_ITEM ( )  RATIONAL_B_SPLINE_CURVE ( ( 1.000000000000000000, 0.3333333333333333700, 0.3333333333333333700, 1.000000000000000000 ) ) 
 REPRESENTATION_ITEM ( '' )  );
#268 = PRODUCT_DEFINITION_SHAPE ( 'NONE', 'NONE',  #284 ) ;
#269 = DESIGN_CONTEXT ( 'detailed design', #78, 'design' ) ;
#270 =( BOUNDED_CURVE ( )  B_SPLINE_CURVE ( 3, ( #28, #29, #30, #31 ),
 .UNSPECIFIED., .F., .F. ) 
 B_SPLINE_CURVE_WITH_KNOTS ( ( 4, 4 ),
 ( 3.141592653589784200, 6.283185307179577400 ),
 .UNSPECIFIED. ) 
 CURVE ( )  GEOMETRIC_REPRESENTATION_ITEM ( )  RATIONAL_B_SPLINE_CURVE ( ( 1.000000000000000000, 0.3333333333333333700, 0.3333333333333333700, 1.000000000000000000 ) ) 
 REPRESENTATION_ITEM ( '' )  );
#271 = AXIS2_PLACEMENT_3D ( 'NONE', #375, #379, #372 ) ;
#272 = AXIS2_PLACEMENT_3D ( 'NONE', #327, #356, #352 ) ;
#273 = AXIS2_PLACEMENT_3D ( 'NONE', #378, #374, #377 ) ;
#274 = AXIS2_PLACEMENT_3D ( 'NONE', #359, #354, #362 ) ;
#275 = AXIS2_PLACEMENT_3D ( 'NONE', #366, #347, #351 ) ;
#276 = AXIS2_PLACEMENT_3D ( 'NONE', #331, #341, #340 ) ;
#277 = EDGE_CURVE ( 'NONE', #382, #357, #267, .T. ) ;
#278 = AXIS2_PLACEMENT_3D ( 'NONE', #388, #370, #365 ) ;
#279 = AXIS2_PLACEMENT_3D ( 'NONE', #328, #387, #1 ) ;
#280 = AXIS2_PLACEMENT_3D ( 'NONE', #4, #5, #6 ) ;
#281 = AXIS2_PLACEMENT_3D ( 'NONE', #42, #43, #44 ) ;
#282 = AXIS2_PLACEMENT_3D ( 'NONE', #71, #72, #73 ) ;
#283 = CC_DESIGN_PERSON_AND_ORGANIZATION_ASSIGNMENT ( #159, #77, ( #250 ) ) ;
#284 = PRODUCT_DEFINITION ( 'UNKNOWN', '', #315, #269 ) ;
#285 = APPROVAL ( #80, 'UNSPECIFIED' ) ;
#286 = EDGE_CURVE ( 'NONE', #329, #344, #117, .T. ) ;
#287 = EDGE_CURVE ( 'NONE', #353, #386, #142, .T. ) ;
#288 = EDGE_CURVE ( 'NONE', #339, #383, #165, .T. ) ;
#289 = EDGE_CURVE ( 'NONE', #353, #344, #161, .T. ) ;
#290 = EDGE_CURVE ( 'NONE', #383, #339, #182, .T. ) ;
#291 = EDGE_CURVE ( 'NONE', #386, #380, #96, .T. ) ;
#292 = EDGE_CURVE ( 'NONE', #357, #382, #265, .T. ) ;
#293 = EDGE_CURVE ( 'NONE', #343, #350, #266, .T. ) ;
#294 = EDGE_CURVE ( 'NONE', #385, #386, #129, .T. ) ;
#295 = AXIS2_PLACEMENT_3D ( 'NONE', #335, #338, #330 ) ;
#296 = EDGE_CURVE ( 'NONE', #376, #382, #132, .T. ) ;
#297 = EDGE_CURVE ( 'NONE', #376, #384, #150, .T. ) ;
#298 = EDGE_CURVE ( 'NONE', #385, #373, #107, .T. ) ;
#299 = CC_DESIGN_PERSON_AND_ORGANIZATION_ASSIGNMENT ( #185, #87, ( #315 ) ) ;
#300 = CC_DESIGN_PERSON_AND_ORGANIZATION_ASSIGNMENT ( #179, #89, ( #184 ) ) ;
#301 = CC_DESIGN_DATE_AND_TIME_ASSIGNMENT ( #143, #90, ( #184 ) ) ;
#302 = EDGE_CURVE ( 'NONE', #344, #380, #158, .T. ) ;
#303 = APPROVAL ( #91, 'UNSPECIFIED' ) ;
#304 = EDGE_CURVE ( 'NONE', #350, #343, #270, .T. ) ;
#305 = CC_DESIGN_APPROVAL ( #285, ( #284 ) ) ;
#306 = CC_DESIGN_APPROVAL ( #303, ( #184 ) ) ;
#307 = EDGE_CURVE ( 'NONE', #384, #357, #99, .T. ) ;
#308 = CC_DESIGN_PERSON_AND_ORGANIZATION_ASSIGNMENT ( #127, #82, ( #284 ) ) ;
#309 = CC_DESIGN_SECURITY_CLASSIFICATION ( #184, ( #315 ) ) ;
#310 = CC_DESIGN_DATE_AND_TIME_ASSIGNMENT ( #166, #83, ( #284 ) ) ;
#311 = EDGE_CURVE ( 'NONE', #329, #381, #123, .T. ) ;
#312 = EDGE_CURVE ( 'NONE', #373, #329, #147, .T. ) ;
#313 = AXIS2_PLACEMENT_3D ( 'NONE', #345, #346, #337 ) ;
#314 = EDGE_CURVE ( 'NONE', #373, #380, #149, .T. ) ;
#315 = PRODUCT_DEFINITION_FORMATION_WITH_SPECIFIED_SOURCE ( 'ANY', '', #250, .NOT_KNOWN. ) ;
#316 = PRODUCT_RELATED_PRODUCT_CATEGORY ( 'detail', '', ( #250 ) ) ;
#317 = APPROVAL ( #84, 'UNSPECIFIED' ) ;
#318 = CC_DESIGN_APPROVAL ( #317, ( #315 ) ) ;
#319 = AXIS2_PLACEMENT_3D ( 'NONE', #336, #332, #334 ) ;
#320 = CC_DESIGN_PERSON_AND_ORGANIZATION_ASSIGNMENT ( #137, #86, ( #315 ) ) ;
#321 = AXIS2_PLACEMENT_3D ( 'NONE', #21, #22, #23 ) ;
#322 = EDGE_CURVE ( 'NONE', #339, #343, #191, .T. ) ;
#323 = EDGE_CURVE ( 'NONE', #384, #376, #156, .T. ) ;
#324 = EDGE_CURVE ( 'NONE', #385, #381, #160, .T. ) ;
#325 = EDGE_CURVE ( 'NONE', #353, #381, #113, .T. ) ;
#326 = EDGE_CURVE ( 'NONE', #383, #350, #109, .T. ) ;
#327 = CARTESIAN_POINT ( 'NONE',  ( -0.3935000000000000700, -0.1139999999999999300, -0.3934999999999999100 ) ) ;
#328 = CARTESIAN_POINT ( 'NONE',  ( 0.3934999999999999100, 0.3937007874015748300, -0.3934999999999999600 ) ) ;
#329 = VERTEX_POINT ( 'NONE', #51 ) ;
#330 = DIRECTION ( 'NONE',  ( -1.000000000000000000, 0.0000000000000000000, 0.0000000000000000000 ) ) ;
#331 = CARTESIAN_POINT ( 'NONE',  ( 0.7849999999999999200, 0.8860000000000000100, -0.7869999999999999200 ) ) ;
#332 = DIRECTION ( 'NONE',  ( -0.0000000000000000000, 1.000000000000000000, -0.0000000000000000000 ) ) ;
#333 = PLANE ( 'NONE',  #273 ) ;
#334 = DIRECTION ( 'NONE',  ( 0.0000000000000000000, 0.0000000000000000000, 1.000000000000000000 ) ) ;
#335 = CARTESIAN_POINT ( 'NONE',  ( -0.7850000000000002500, -3.490128108393781000E-017, -0.7869999999999999200 ) ) ;
#336 = CARTESIAN_POINT ( 'NONE',  ( 0.3934999999999999100, -0.1139999999999999300, -0.3934999999999999600 ) ) ;
#337 = DIRECTION ( 'NONE',  ( 0.0000000000000000000, 0.0000000000000000000, 1.000000000000000000 ) ) ;
#338 = DIRECTION ( 'NONE',  ( 0.0000000000000000000, 0.0000000000000000000, -1.000000000000000000 ) ) ;
#339 = VERTEX_POINT ( 'NONE', #52 ) ;
#340 = DIRECTION ( 'NONE',  ( -1.541674939991119000E-016, 1.000000000000000000, 0.0000000000000000000 ) ) ;
#341 = DIRECTION ( 'NONE',  ( 1.000000000000000000, 1.541674939991119000E-016, -0.0000000000000000000 ) ) ;
#342 = PLANE ( 'NONE',  #295 ) ;
#343 = VERTEX_POINT ( 'NONE', #53 ) ;
#344 = VERTEX_POINT ( 'NONE', #54 ) ;
#345 = CARTESIAN_POINT ( 'NONE',  ( 0.3934999999999999100, -0.1139999999999999300, -0.3934999999999999600 ) ) ;
#346 = DIRECTION ( 'NONE',  ( -0.0000000000000000000, 1.000000000000000000, -0.0000000000000000000 ) ) ;
#347 = DIRECTION ( 'NONE',  ( 0.0000000000000000000, 0.0000000000000000000, -1.000000000000000000 ) ) ;
#348 = PLANE ( 'NONE',  #276 ) ;
#349 = PLANE ( 'NONE',  #278 ) ;
#350 = VERTEX_POINT ( 'NONE', #55 ) ;
#351 = DIRECTION ( 'NONE',  ( -1.000000000000000000, 0.0000000000000000000, 0.0000000000000000000 ) ) ;
#352 = DIRECTION ( 'NONE',  ( 0.0000000000000000000, 0.0000000000000000000, 1.000000000000000000 ) ) ;
#353 = VERTEX_POINT ( 'NONE', #56 ) ;
#354 = DIRECTION ( 'NONE',  ( -0.0000000000000000000, 1.000000000000000000, -0.0000000000000000000 ) ) ;
#355 = PLANE ( 'NONE',  #275 ) ;
#356 = DIRECTION ( 'NONE',  ( -0.0000000000000000000, 1.000000000000000000, -0.0000000000000000000 ) ) ;
#357 = VERTEX_POINT ( 'NONE', #57 ) ;
#358 = CARTESIAN_POINT ( 'NONE',  ( -0.7850000000000002500, -9.613159877505664200E-017, -0.7869999999999999200 ) ) ;
#359 = CARTESIAN_POINT ( 'NONE',  ( -0.3935000000000000700, -0.1139999999999999300, -0.3934999999999999100 ) ) ;
#360 = DIRECTION ( 'NONE',  ( -1.000000000000000000, -0.0000000000000000000, -0.0000000000000000000 ) ) ;
#361 = CARTESIAN_POINT ( 'NONE',  ( -0.7850000000000002500, 0.8860000000000000100, 0.0000000000000000000 ) ) ;
#362 = DIRECTION ( 'NONE',  ( 0.0000000000000000000, 0.0000000000000000000, 1.000000000000000000 ) ) ;
#363 = CARTESIAN_POINT ( 'NONE',  ( -0.3935000000000000700, 0.8768884561074702400, -0.5220000000000000200 ) ) ;
#364 = PLANE ( 'NONE',  #271 ) ;
#365 = DIRECTION ( 'NONE',  ( 0.0000000000000000000, 0.0000000000000000000, 1.000000000000000000 ) ) ;
#366 = CARTESIAN_POINT ( 'NONE',  ( -0.7850000000000002500, -3.490128108393781000E-017, 0.0000000000000000000 ) ) ;
#367 = CARTESIAN_POINT ( 'NONE',  ( -0.1364999999999999500, 0.8768884561074702400, -0.5220000000000000200 ) ) ;
#368 = CARTESIAN_POINT ( 'NONE',  ( -0.1364999999999999500, 0.8813744077940223200, -0.2649999999999998500 ) ) ;
#369 = DIRECTION ( 'NONE',  ( -0.0000000000000000000, -1.000000000000000000, -0.0000000000000000000 ) ) ;
#370 = DIRECTION ( 'NONE',  ( -1.000000000000000000, 0.0000000000000000000, 0.0000000000000000000 ) ) ;
#371 = CARTESIAN_POINT ( 'NONE',  ( -0.3935000000000000700, 0.8813744077940222100, -0.2649999999999998500 ) ) ;
#372 = DIRECTION ( 'NONE',  ( 0.0000000000000000000, -0.01745240643728368900, -0.9998476951563912700 ) ) ;
#373 = VERTEX_POINT ( 'NONE', #58 ) ;
#374 = DIRECTION ( 'NONE',  ( -0.0000000000000000000, 1.000000000000000000, 0.0000000000000000000 ) ) ;
#375 = CARTESIAN_POINT ( 'NONE',  ( -1.735000000000000500, 0.8859999999999996800, 0.0000000000000000000 ) ) ;
#376 = VERTEX_POINT ( 'NONE', #59 ) ;
#377 = DIRECTION ( 'NONE',  ( 0.0000000000000000000, -0.0000000000000000000, 1.000000000000000000 ) ) ;
#378 = CARTESIAN_POINT ( 'NONE',  ( -0.7850000000000002500, 0.3937007874015748300, -2.405610610987281900 ) ) ;
#379 = DIRECTION ( 'NONE',  ( 1.541440135430488200E-016, -0.9998476951563912700, 0.01745240643728368900 ) ) ;
#380 = VERTEX_POINT ( 'NONE', #60 ) ;
#381 = VERTEX_POINT ( 'NONE', #61 ) ;
#382 = VERTEX_POINT ( 'NONE', #62 ) ;
#383 = VERTEX_POINT ( 'NONE', #63 ) ;
#384 = VERTEX_POINT ( 'NONE', #64 ) ;
#385 = VERTEX_POINT ( 'NONE', #65 ) ;
#386 = VERTEX_POINT ( 'NONE', #66 ) ;
#387 = DIRECTION ( 'NONE',  ( 0.0000000000000000000, -1.000000000000000000, -0.0000000000000000000 ) ) ;
#388 = CARTESIAN_POINT ( 'NONE',  ( -0.7850000000000002500, -9.613159877505664200E-017, -0.7869999999999999200 ) ) ;
ENDSEC;
END-ISO-10303-21;
