ISO-10303-21;
HEADER;
FILE_DESCRIPTION (( 'STEP AP203' ),
    '1' );
FILE_NAME ('D030460-v2_aLIGO_SUS_HSTS_Upper Blade Clamp, Lower Side, Angled 0.5.STEP',
    '2010-06-23T19:42:13',
    ( 'Dwayne Giardina' ),
    ( 'CA Institute of Technology' ),
    'SwSTEP 2.0',
    'SolidWorks 2009',
    '' );
FILE_SCHEMA (( 'CONFIG_CONTROL_DESIGN' ));
ENDSEC;

DATA;
#1 = EDGE_CURVE ( 'NONE', #384, #340, #136, .T. ) ;
#2 = EDGE_CURVE ( 'NONE', #347, #340, #138, .T. ) ;
#3 = CC_DESIGN_PERSON_AND_ORGANIZATION_ASSIGNMENT ( #233, #129, ( #43 ) ) ;
#4 = CC_DESIGN_DATE_AND_TIME_ASSIGNMENT ( #310, #205, ( #32 ) ) ;
#5 = CC_DESIGN_APPROVAL ( #50, ( #32 ) ) ;
#6 = AXIS2_PLACEMENT_3D ( 'NONE', #292, #86, #319 ) ;
#7 = EDGE_CURVE ( 'NONE', #348, #351, #182, .T. ) ;
#8 = EDGE_CURVE ( 'NONE', #383, #372, #267, .T. ) ;
#9 = EDGE_CURVE ( 'NONE', #378, #384, #281, .T. ) ;
#10 = EDGE_CURVE ( 'NONE', #383, #388, #131, .T. ) ;
#11 = AXIS2_PLACEMENT_3D ( 'NONE', #118, #91, #296 ) ;
#12 = EDGE_CURVE ( 'NONE', #340, #388, #247, .T. ) ;
#13 = AXIS2_PLACEMENT_3D ( 'NONE', #239, #299, #232 ) ;
#14 = AXIS2_PLACEMENT_3D ( 'NONE', #266, #87, #322 ) ;
#15 = EDGE_CURVE ( 'NONE', #382, #347, #214, .T. ) ;
#16 = CC_DESIGN_SECURITY_CLASSIFICATION ( #166, ( #43 ) ) ;
#17 = EDGE_CURVE ( 'NONE', #382, #372, #159, .T. ) ;
#18 = AXIS2_PLACEMENT_3D ( 'NONE', #208, #321, #103 ) ;
#19 = AXIS2_PLACEMENT_3D ( 'NONE', #169, #262, #258 ) ;
#20 = EDGE_CURVE ( 'NONE', #334, #341, #284, .T. ) ;
#21 = AXIS2_PLACEMENT_3D ( 'NONE', #366, #373, #362 ) ;
#22 = AXIS2_PLACEMENT_3D ( 'NONE', #339, #343, #335 ) ;
#23 = AXIS2_PLACEMENT_3D ( 'NONE', #175, #217, #90 ) ;
#24 = AXIS2_PLACEMENT_3D ( 'NONE', #345, #323, #326 ) ;
#25 = EDGE_CURVE ( 'NONE', #351, #352, #308, .T. ) ;
#26 = AXIS2_PLACEMENT_3D ( 'NONE', #349, #355, #359 ) ;
#27 = AXIS2_PLACEMENT_3D ( 'NONE', #117, #156, #149 ) ;
#28 = EDGE_CURVE ( 'NONE', #378, #347, #139, .T. ) ;
#29 = EDGE_CURVE ( 'NONE', #385, #352, #178, .T. ) ;
#30 = AXIS2_PLACEMENT_3D ( 'NONE', #75, #185, #286 ) ;
#31 = CC_DESIGN_APPROVAL ( #37, ( #43 ) ) ;
#32 = PRODUCT_DEFINITION ( 'UNKNOWN', '', #43, #168 ) ;
#33 = CC_DESIGN_PERSON_AND_ORGANIZATION_ASSIGNMENT ( #273, #88, ( #32 ) ) ;
#34 = AXIS2_PLACEMENT_3D ( 'NONE', #294, #83, #268 ) ;
#35 = PRODUCT_RELATED_PRODUCT_CATEGORY ( 'detail', '', ( #58 ) ) ;
#36 = CC_DESIGN_PERSON_AND_ORGANIZATION_ASSIGNMENT ( #307, #291, ( #166 ) ) ;
#37 = APPROVAL ( #141, 'UNSPECIFIED' ) ;
#38 = APPROVAL ( #92, 'UNSPECIFIED' ) ;
#39 = EDGE_CURVE ( 'NONE', #376, #344, #215, .T. ) ;
#40 = EDGE_CURVE ( 'NONE', #378, #372, #222, .T. ) ;
#41 = EDGE_CURVE ( 'NONE', #351, #348, #100, .T. ) ;
#42 = EDGE_CURVE ( 'NONE', #341, #334, #298, .T. ) ;
#43 = PRODUCT_DEFINITION_FORMATION_WITH_SPECIFIED_SOURCE ( 'ANY', '', #58, .NOT_KNOWN. ) ;
#44 = EDGE_CURVE ( 'NONE', #352, #385, #256, .T. ) ;
#45 = EDGE_CURVE ( 'NONE', #348, #385, #108, .T. ) ;
#46 = EDGE_CURVE ( 'NONE', #341, #376, #112, .T. ) ;
#47 = CC_DESIGN_APPROVAL ( #38, ( #166 ) ) ;
#48 = CC_DESIGN_DATE_AND_TIME_ASSIGNMENT ( #157, #78, ( #166 ) ) ;
#49 = EDGE_CURVE ( 'NONE', #334, #344, #276, .T. ) ;
#50 = APPROVAL ( #265, 'UNSPECIFIED' ) ;
#51 = EDGE_CURVE ( 'NONE', #344, #376, #93, .T. ) ;
#52 = EDGE_CURVE ( 'NONE', #384, #383, #179, .T. ) ;
#53 = CC_DESIGN_PERSON_AND_ORGANIZATION_ASSIGNMENT ( #249, #234, ( #43 ) ) ;
#54 = AXIS2_PLACEMENT_3D ( 'NONE', #202, #216, #84 ) ;
#55 = EDGE_CURVE ( 'NONE', #388, #382, #227, .T. ) ;
#56 = CC_DESIGN_PERSON_AND_ORGANIZATION_ASSIGNMENT ( #193, #204, ( #58 ) ) ;
#57 = PERSON ( 'UNSPECIFIED', 'UNSPECIFIED', 'UNSPECIFIED', ('UNSPECIFIED'), ('UNSPECIFIED'), ('UNSPECIFIED') ) ;
#58 = PRODUCT ( 'D030460-v2_aLIGO_SUS_HSTS_Upper Blade Clamp, Lower Side, Angled 0.5', 'D030460-v2_aLIGO_SUS_HSTS_Upper Blade Clamp, Lower Side, Angled 0.5', '', ( #152 ) ) ;
#59 = MANIFOLD_SOLID_BREP ( 'NONE', #212 ) ;
#60 = UNCERTAINTY_MEASURE_WITH_UNIT (LENGTH_MEASURE( 1.000000000000000100E-005 ), #264, 'distance_accuracy_value', 'NONE');
#61 = ADVANCED_BREP_SHAPE_REPRESENTATION ( 'D030460-v2_aLIGO_SUS_HSTS_Upper Blade Clamp, Lower Side, Angled 0.5', ( #59, #30 ), #209 ) ;
#62 = ADVANCED_FACE ( 'NONE', ( #206 ), #272, .F. ) ;
#63 = ADVANCED_FACE ( 'NONE', ( #220, #180, #277 ), #113, .F. ) ;
#64 = ADVANCED_FACE ( 'NONE', ( #235 ), #213, .F. ) ;
#65 = ADVANCED_FACE ( 'NONE', ( #105 ), #311, .F. ) ;
#66 = ADVANCED_FACE ( 'NONE', ( #257 ), #285, .F. ) ;
#67 = ADVANCED_FACE ( 'NONE', ( #127 ), #221, .T. ) ;
#68 = ADVANCED_FACE ( 'NONE', ( #187 ), #259, .F. ) ;
#69 = ADVANCED_FACE ( 'NONE', ( #150, #278, #135 ), #107, .T. ) ;
#70 = DIMENSIONAL_EXPONENTS ( 1.000000000000000000, 0.0000000000000000000, 0.0000000000000000000, 0.0000000000000000000, 0.0000000000000000000, 0.0000000000000000000, 0.0000000000000000000 ) ;
#71 = ADVANCED_FACE ( 'NONE', ( #270 ), #163, .T. ) ;
#72 = ADVANCED_FACE ( 'NONE', ( #122 ), #73, .T. ) ;
#73 = PLANE ( 'NONE',  #13 ) ;
#74 = APPLICATION_PROTOCOL_DEFINITION ( 'international standard', 'config_control_design', 1994, #85 ) ;
#75 = CARTESIAN_POINT ( 'NONE',  ( 0.0000000000000000000, 0.0000000000000000000, 0.0000000000000000000 ) ) ;
#76 = CARTESIAN_POINT ( 'NONE',  ( -0.7850000000000002500, -9.613159877505664200E-017, -0.7869999999999999200 ) ) ;
#77 = CARTESIAN_POINT ( 'NONE',  ( -0.3935000000000000700, -0.5077007900000000100, -0.5220000000000000200 ) ) ;
#78 = DATE_TIME_ROLE ( 'classification_date' ) ;
#79 = CARTESIAN_POINT ( 'NONE',  ( 0.7849999999999999200, 0.4922992099999999900, 0.0000000000000000000 ) ) ;
#80 = CARTESIAN_POINT ( 'NONE',  ( 0.7849999999999999200, 0.4854311650486728400, -0.7869999999999999200 ) ) ;
#81 = DIRECTION ( 'NONE',  ( 1.000000000000000000, 4.446023068017549600E-017, -0.0000000000000000000 ) ) ;
#82 = CARTESIAN_POINT ( 'NONE',  ( 0.7850000000000001400, 3.490128108393776700E-017, -0.7869999999999999200 ) ) ;
#83 = DIRECTION ( 'NONE',  ( 1.000000000000000000, 0.0000000000000000000, -0.0000000000000000000 ) ) ;
#84 = DIRECTION ( 'NONE',  ( 0.0000000000000000000, 0.0000000000000000000, 1.000000000000000000 ) ) ;
#85 = APPLICATION_CONTEXT ( 'configuration controlled 3d designs of mechanical parts and assemblies' ) ;
#86 = DIRECTION ( 'NONE',  ( 0.0000000000000000000, 0.0000000000000000000, 1.000000000000000000 ) ) ;
#87 = DIRECTION ( 'NONE',  ( 1.224606353822377500E-016, -1.000000000000000000, 0.0000000000000000000 ) ) ;
#88 = PERSON_AND_ORGANIZATION_ROLE ( 'creator' ) ;
#89 = CARTESIAN_POINT ( 'NONE',  ( -0.3935000000000000700, 0.4899865900354487000, -0.2649999999999999000 ) ) ;
#90 = DIRECTION ( 'NONE',  ( 0.0000000000000000000, 0.0000000000000000000, 1.000000000000000000 ) ) ;
#91 = DIRECTION ( 'NONE',  ( 1.541616237733360600E-016, -0.9999619230641713100, 0.008726535498373932900 ) ) ;
#92 = APPROVAL_STATUS ( 'not_yet_approved' ) ;
#93 =( BOUNDED_CURVE ( )  B_SPLINE_CURVE ( 3, ( #147, #137, #219, #188 ),
 .UNSPECIFIED., .F., .T. ) 
 B_SPLINE_CURVE_WITH_KNOTS ( ( 4, 4 ),
 ( 3.141592653589775400, 6.283185307179568500 ),
 .UNSPECIFIED. ) 
 CURVE ( )  GEOMETRIC_REPRESENTATION_ITEM ( )  RATIONAL_B_SPLINE_CURVE ( ( 1.000000000000000000, 0.3333333333333333700, 0.3333333333333333700, 1.000000000000000000 ) ) 
 REPRESENTATION_ITEM ( '' )  );
#94 = PRODUCT_DEFINITION_SHAPE ( 'NONE', 'NONE',  #32 ) ;
#95 = ORIENTED_EDGE ( 'NONE', *, *, #40, .T. ) ;
#96 = VECTOR ( 'NONE', #81, 39.37007874015748100 ) ;
#97 = EDGE_LOOP ( 'NONE', ( #164, #130, #250, #128 ) ) ;
#98 = VECTOR ( 'NONE', #363, 39.37007874015748100 ) ;
#99 = ORIENTED_EDGE ( 'NONE', *, *, #46, .F. ) ;
#100 = CIRCLE ( 'NONE', #24, 0.1285000000000000000 ) ;
#101 = ORIENTED_EDGE ( 'NONE', *, *, #41, .F. ) ;
#102 = ORIENTED_EDGE ( 'NONE', *, *, #49, .F. ) ;
#103 = DIRECTION ( 'NONE',  ( -2.774580923727526200E-016, -1.000000000000000000, 0.0000000000000000000 ) ) ;
#104 = COORDINATED_UNIVERSAL_TIME_OFFSET ( 6, 0, .BEHIND. ) ;
#105 = FACE_OUTER_BOUND ( 'NONE', #318, .T. ) ;
#106 = ORIENTED_EDGE ( 'NONE', *, *, #12, .F. ) ;
#107 = PLANE ( 'NONE',  #14 ) ;
#108 = LINE ( 'NONE', #354, #246 ) ;
#109 = CALENDAR_DATE ( 2010, 23, 6 ) ;
#110 = ORIENTED_EDGE ( 'NONE', *, *, #12, .T. ) ;
#111 = VECTOR ( 'NONE', #375, 39.37007874015748100 ) ;
#112 = LINE ( 'NONE', #370, #245 ) ;
#114 = ORIENTED_EDGE ( 'NONE', *, *, #45, .T. ) ;
#113 = PLANE ( 'NONE',  #11 ) ;
#115 = SHAPE_DEFINITION_REPRESENTATION ( #94, #61 ) ;
#116 = ORIENTED_EDGE ( 'NONE', *, *, #7, .F. ) ;
#117 = CARTESIAN_POINT ( 'NONE',  ( 0.3934999999999999100, -0.5077007900000000100, -0.3935000000000000700 ) ) ;
#118 = CARTESIAN_POINT ( 'NONE',  ( -1.735000000000000500, 0.4922992099999996000, 0.0000000000000000000 ) ) ;
#119 = EDGE_LOOP ( 'NONE', ( #132, #124, #225, #288 ) ) ;
#120 = LOCAL_TIME ( 14, 42, 13.00000000000000000, #154 ) ;
#121 = APPROVAL_PERSON_ORGANIZATION ( #184, #38, #200 ) ;
#122 = FACE_OUTER_BOUND ( 'NONE', #238, .T. ) ;
#123 = ORIENTED_EDGE ( 'NONE', *, *, #29, .F. ) ;
#124 = ORIENTED_EDGE ( 'NONE', *, *, #9, .T. ) ;
#125 = CARTESIAN_POINT ( 'NONE',  ( -0.3935000000000000700, 0.4877437850132236900, -0.5220000000000000200 ) ) ;
#126 = ORIENTED_EDGE ( 'NONE', *, *, #55, .T. ) ;
#127 = FACE_OUTER_BOUND ( 'NONE', #119, .T. ) ;
#128 = ORIENTED_EDGE ( 'NONE', *, *, #8, .T. ) ;
#129 = PERSON_AND_ORGANIZATION_ROLE ( 'design_supplier' ) ;
#130 = ORIENTED_EDGE ( 'NONE', *, *, #55, .F. ) ;
#131 = LINE ( 'NONE', #337, #289 ) ;
#132 = ORIENTED_EDGE ( 'NONE', *, *, #28, .F. ) ;
#133 = VECTOR ( 'NONE', #342, 39.37007874015748100 ) ;
#134 = ORIENTED_EDGE ( 'NONE', *, *, #10, .T. ) ;
#135 = FACE_OUTER_BOUND ( 'NONE', #280, .T. ) ;
#136 = LINE ( 'NONE', #381, #133 ) ;
#137 = CARTESIAN_POINT ( 'NONE',  ( -0.6505000000000000800, 0.4877437850132236300, -0.5220000000000002400 ) ) ;
#138 = LINE ( 'NONE', #364, #260 ) ;
#139 = LINE ( 'NONE', #380, #242 ) ;
#140 = ORIENTED_EDGE ( 'NONE', *, *, #20, .F. ) ;
#141 = APPROVAL_STATUS ( 'not_yet_approved' ) ;
#142 = ORIENTED_EDGE ( 'NONE', *, *, #15, .F. ) ;
#143 = ORIENTED_EDGE ( 'NONE', *, *, #46, .T. ) ;
#144 = ORIENTED_EDGE ( 'NONE', *, *, #1, .F. ) ;
#145 = ORGANIZATION ( 'UNSPECIFIED', 'UNSPECIFIED', '' ) ;
#146 = COORDINATED_UNIVERSAL_TIME_OFFSET ( 6, 0, .BEHIND. ) ;
#147 = CARTESIAN_POINT ( 'NONE',  ( -0.3935000000000000700, 0.4877437850132236900, -0.5220000000000000200 ) ) ;
#148 = ORIENTED_EDGE ( 'NONE', *, *, #51, .F. ) ;
#149 = DIRECTION ( 'NONE',  ( 0.0000000000000000000, 0.0000000000000000000, 1.000000000000000000 ) ) ;
#150 = FACE_BOUND ( 'NONE', #237, .T. ) ;
#151 = ORIENTED_EDGE ( 'NONE', *, *, #8, .F. ) ;
#153 = VECTOR ( 'NONE', #346, 39.37007874015748100 ) ;
#152 = MECHANICAL_CONTEXT ( 'NONE', #192, 'mechanical' ) ;
#154 = COORDINATED_UNIVERSAL_TIME_OFFSET ( 6, 0, .BEHIND. ) ;
#155 = APPROVAL_PERSON_ORGANIZATION ( #313, #37, #228 ) ;
#156 = DIRECTION ( 'NONE',  ( -0.0000000000000000000, 1.000000000000000000, -0.0000000000000000000 ) ) ;
#157 = DATE_AND_TIME ( #109, #305 ) ;
#158 = CARTESIAN_POINT ( 'NONE',  ( -0.3935000000000000700, -6.829619984160658000E-017, -0.2649999999999999000 ) ) ;
#159 = LINE ( 'NONE', #356, #194 ) ;
#160 = ORIENTED_EDGE ( 'NONE', *, *, #51, .T. ) ;
#161 = VECTOR ( 'NONE', #333, 39.37007874015748100 ) ;
#163 = PLANE ( 'NONE',  #34 ) ;
#162 = APPROVAL_DATE_TIME ( #295, #50 ) ;
#164 = ORIENTED_EDGE ( 'NONE', *, *, #17, .F. ) ;
#165 = CARTESIAN_POINT ( 'NONE',  ( 0.7850000000000001400, 0.4922992099999999900, 0.0000000000000000000 ) ) ;
#166 = SECURITY_CLASSIFICATION ( '', '', #191 ) ;
#167 = LOCAL_TIME ( 14, 42, 13.00000000000000000, #146 ) ;
#168 = DESIGN_CONTEXT ( 'detailed design', #85, 'design' ) ;
#169 = CARTESIAN_POINT ( 'NONE',  ( -0.3935000000000000700, -0.5077007900000000100, -0.3934999999999999600 ) ) ;
#170 = ORIENTED_EDGE ( 'NONE', *, *, #29, .T. ) ;
#171 = APPROVAL_DATE_TIME ( #297, #37 ) ;
#172 = COORDINATED_UNIVERSAL_TIME_OFFSET ( 6, 0, .BEHIND. ) ;
#173 = EDGE_LOOP ( 'NONE', ( #304, #142, #244, #287 ) ) ;
#174 = LENGTH_MEASURE_WITH_UNIT ( LENGTH_MEASURE( 0.02539999999999999900 ), #251 );
#175 = CARTESIAN_POINT ( 'NONE',  ( -0.3935000000000000700, -0.5077007900000000100, -0.3934999999999999600 ) ) ;
#176 = EDGE_LOOP ( 'NONE', ( #198, #95, #151, #261 ) ) ;
#177 = DATE_AND_TIME ( #315, #230 ) ;
#178 =( BOUNDED_CURVE ( )  B_SPLINE_CURVE ( 3, ( #361, #365, #324, #386 ),
 .UNSPECIFIED., .F., .T. ) 
 B_SPLINE_CURVE_WITH_KNOTS ( ( 4, 4 ),
 ( 3.141592653589775400, 6.283185307179568500 ),
 .UNSPECIFIED. ) 
 CURVE ( )  GEOMETRIC_REPRESENTATION_ITEM ( )  RATIONAL_B_SPLINE_CURVE ( ( 1.000000000000000000, 0.3333333333333333700, 0.3333333333333333700, 1.000000000000000000 ) ) 
 REPRESENTATION_ITEM ( '' )  );
#179 = LINE ( 'NONE', #82, #96 ) ;
#180 = FACE_BOUND ( 'NONE', #309, .T. ) ;
#181 = ORIENTED_EDGE ( 'NONE', *, *, #52, .T. ) ;
#182 = CIRCLE ( 'NONE', #21, 0.1285000000000000000 ) ;
#183 = ORIENTED_EDGE ( 'NONE', *, *, #20, .T. ) ;
#184 = PERSON_AND_ORGANIZATION ( #57, #145 ) ;
#185 = DIRECTION ( 'NONE',  ( 0.0000000000000000000, 0.0000000000000000000, 1.000000000000000000 ) ) ;
#186 = CARTESIAN_POINT ( 'NONE',  ( -0.7850000000000001400, 0.4922992099999999900, 0.0000000000000000000 ) ) ;
#187 = FACE_OUTER_BOUND ( 'NONE', #176, .T. ) ;
#188 = CARTESIAN_POINT ( 'NONE',  ( -0.3935000000000000700, 0.4899865900354487000, -0.2649999999999999000 ) ) ;
#189 = ORIENTED_EDGE ( 'NONE', *, *, #2, .T. ) ;
#190 = APPROVAL_ROLE ( '' ) ;
#191 = SECURITY_CLASSIFICATION_LEVEL ( 'unclassified' ) ;
#192 = APPLICATION_CONTEXT ( 'configuration controlled 3d designs of mechanical parts and assemblies' ) ;
#193 = PERSON_AND_ORGANIZATION ( #57, #145 ) ;
#194 = VECTOR ( 'NONE', #371, 39.37007874015748900 ) ;
#195 = DIRECTION ( 'NONE',  ( -0.0000000000000000000, 1.000000000000000000, -0.0000000000000000000 ) ) ;
#196 = CARTESIAN_POINT ( 'NONE',  ( 0.7850000000000001400, 3.490128108393776700E-017, -0.7869999999999999200 ) ) ;
#197 = APPROVAL_DATE_TIME ( #177, #38 ) ;
#198 = ORIENTED_EDGE ( 'NONE', *, *, #9, .F. ) ;
#199 =( NAMED_UNIT ( * ) PLANE_ANGLE_UNIT ( ) SI_UNIT ( $, .RADIAN. ) );
#200 = APPROVAL_ROLE ( '' ) ;
#201 = LOCAL_TIME ( 14, 42, 13.00000000000000000, #236 ) ;
#202 = CARTESIAN_POINT ( 'NONE',  ( 0.3934999999999999100, -0.5077007900000000100, -0.3935000000000000700 ) ) ;
#203 = CALENDAR_DATE ( 2010, 23, 6 ) ;
#204 = PERSON_AND_ORGANIZATION_ROLE ( 'design_owner' ) ;
#205 = DATE_TIME_ROLE ( 'creation_date' ) ;
#206 = FACE_OUTER_BOUND ( 'NONE', #303, .T. ) ;
#207 = ORIENTED_EDGE ( 'NONE', *, *, #15, .T. ) ;
#208 = CARTESIAN_POINT ( 'NONE',  ( -0.7850000000000002500, -9.613159877505664200E-017, -0.7869999999999999200 ) ) ;
#209 =( GEOMETRIC_REPRESENTATION_CONTEXT ( 3 ) GLOBAL_UNCERTAINTY_ASSIGNED_CONTEXT ( ( #60 ) ) GLOBAL_UNIT_ASSIGNED_CONTEXT ( ( #264, #199, #229 ) ) REPRESENTATION_CONTEXT ( 'NONE', 'WORKASPACE' ) );
#210 = CARTESIAN_POINT ( 'NONE',  ( -0.3935000000000000700, -6.829619984160658000E-017, -0.5220000000000000200 ) ) ;
#211 = VECTOR ( 'NONE', #195, 39.37007874015748100 ) ;
#212 = CLOSED_SHELL ( 'NONE', ( #66, #65, #69, #67, #71, #68, #72, #62, #64, #63 ) ) ;
#213 = CYLINDRICAL_SURFACE ( 'NONE', #54, 0.1285000000000000000 ) ;
#214 = LINE ( 'NONE', #350, #111 ) ;
#215 =( BOUNDED_CURVE ( )  B_SPLINE_CURVE ( 3, ( #374, #367, #379, #369 ),
 .UNSPECIFIED., .F., .F. ) 
 B_SPLINE_CURVE_WITH_KNOTS ( ( 4, 4 ),
 ( -1.776356839400250500E-014, 3.141592653589775400 ),
 .UNSPECIFIED. ) 
 CURVE ( )  GEOMETRIC_REPRESENTATION_ITEM ( )  RATIONAL_B_SPLINE_CURVE ( ( 1.000000000000000000, 0.3333333333333333700, 0.3333333333333333700, 1.000000000000000000 ) ) 
 REPRESENTATION_ITEM ( '' )  );
#216 = DIRECTION ( 'NONE',  ( -0.0000000000000000000, 1.000000000000000000, -0.0000000000000000000 ) ) ;
#217 = DIRECTION ( 'NONE',  ( -0.0000000000000000000, 1.000000000000000000, -0.0000000000000000000 ) ) ;
#218 = ORIENTED_EDGE ( 'NONE', *, *, #49, .T. ) ;
#219 = CARTESIAN_POINT ( 'NONE',  ( -0.6505000000000000800, 0.4899865900354487500, -0.2649999999999999600 ) ) ;
#220 = FACE_OUTER_BOUND ( 'NONE', #173, .T. ) ;
#221 = PLANE ( 'NONE',  #18 ) ;
#222 = LINE ( 'NONE', #358, #153 ) ;
#223 = CARTESIAN_POINT ( 'NONE',  ( 0.3934999999999999100, 0.4877437850132236900, -0.5220000000000000200 ) ) ;
#224 = CARTESIAN_POINT ( 'NONE',  ( 0.7850000000000001400, 3.490128108393776700E-017, 0.0000000000000000000 ) ) ;
#225 = ORIENTED_EDGE ( 'NONE', *, *, #1, .T. ) ;
#226 = ORIENTED_EDGE ( 'NONE', *, *, #44, .T. ) ;
#227 = LINE ( 'NONE', #165, #290 ) ;
#228 = APPROVAL_ROLE ( '' ) ;
#229 =( NAMED_UNIT ( * ) SI_UNIT ( $, .STERADIAN. ) SOLID_ANGLE_UNIT ( ) );
#230 = LOCAL_TIME ( 14, 42, 13.00000000000000000, #104 ) ;
#231 = VECTOR ( 'NONE', #336, 39.37007874015748100 ) ;
#232 = DIRECTION ( 'NONE',  ( 1.000000000000000000, 0.0000000000000000000, -0.0000000000000000000 ) ) ;
#234 = PERSON_AND_ORGANIZATION_ROLE ( 'creator' ) ;
#233 = PERSON_AND_ORGANIZATION ( #57, #145 ) ;
#235 = FACE_OUTER_BOUND ( 'NONE', #252, .T. ) ;
#236 = COORDINATED_UNIVERSAL_TIME_OFFSET ( 6, 0, .BEHIND. ) ;
#237 = EDGE_LOOP ( 'NONE', ( #101, #116 ) ) ;
#238 = EDGE_LOOP ( 'NONE', ( #110, #126, #207, #189 ) ) ;
#239 = CARTESIAN_POINT ( 'NONE',  ( 0.7850000000000001400, 6.829619984160658000E-017, 0.0000000000000000000 ) ) ;
#240 = EDGE_LOOP ( 'NONE', ( #275, #114, #170, #253 ) ) ;
#241 = VECTOR ( 'NONE', #328, 39.37007874015748100 ) ;
#242 = VECTOR ( 'NONE', #360, 39.37007874015748900 ) ;
#243 = ORIENTED_EDGE ( 'NONE', *, *, #7, .T. ) ;
#244 = ORIENTED_EDGE ( 'NONE', *, *, #17, .T. ) ;
#245 = VECTOR ( 'NONE', #325, 39.37007874015748100 ) ;
#246 = VECTOR ( 'NONE', #353, 39.37007874015748100 ) ;
#247 = LINE ( 'NONE', #331, #241 ) ;
#248 = CARTESIAN_POINT ( 'NONE',  ( 0.3934999999999999100, 0.4899865900354487000, -0.2650000000000000700 ) ) ;
#249 = PERSON_AND_ORGANIZATION ( #57, #145 ) ;
#250 = ORIENTED_EDGE ( 'NONE', *, *, #10, .F. ) ;
#251 =( LENGTH_UNIT ( ) NAMED_UNIT ( * ) SI_UNIT ( $, .METRE. ) );
#252 = EDGE_LOOP ( 'NONE', ( #293, #243, #314, #226 ) ) ;
#253 = ORIENTED_EDGE ( 'NONE', *, *, #25, .F. ) ;
#254 = DIRECTION ( 'NONE',  ( -0.0000000000000000000, 1.000000000000000000, -0.0000000000000000000 ) ) ;
#255 = APPLICATION_PROTOCOL_DEFINITION ( 'international standard', 'config_control_design', 1994, #192 ) ;
#256 =( BOUNDED_CURVE ( )  B_SPLINE_CURVE ( 3, ( #332, #329, #377, #368 ),
 .UNSPECIFIED., .F., .T. ) 
 B_SPLINE_CURVE_WITH_KNOTS ( ( 4, 4 ),
 ( -1.776356839400250500E-014, 3.141592653589775400 ),
 .UNSPECIFIED. ) 
 CURVE ( )  GEOMETRIC_REPRESENTATION_ITEM ( )  RATIONAL_B_SPLINE_CURVE ( ( 1.000000000000000000, 0.3333333333333333700, 0.3333333333333333700, 1.000000000000000000 ) ) 
 REPRESENTATION_ITEM ( '' )  );
#257 = FACE_OUTER_BOUND ( 'NONE', #240, .T. ) ;
#258 = DIRECTION ( 'NONE',  ( 0.0000000000000000000, 0.0000000000000000000, 1.000000000000000000 ) ) ;
#259 = PLANE ( 'NONE',  #6 ) ;
#260 = VECTOR ( 'NONE', #357, 39.37007874015748100 ) ;
#261 = ORIENTED_EDGE ( 'NONE', *, *, #52, .F. ) ;
#262 = DIRECTION ( 'NONE',  ( -0.0000000000000000000, 1.000000000000000000, -0.0000000000000000000 ) ) ;
#263 = CARTESIAN_POINT ( 'NONE',  ( 0.3934999999999999100, 6.829619984160658000E-017, -0.2650000000000000700 ) ) ;
#264 =( CONVERSION_BASED_UNIT ( 'INCH', #174 ) LENGTH_UNIT ( ) NAMED_UNIT ( #70 ) );
#265 = APPROVAL_STATUS ( 'not_yet_approved' ) ;
#266 = CARTESIAN_POINT ( 'NONE',  ( 0.0000000000000000000, 0.0000000000000000000, -0.7869999999999999200 ) ) ;
#267 = LINE ( 'NONE', #327, #161 ) ;
#268 = DIRECTION ( 'NONE',  ( -0.0000000000000000000, 0.0000000000000000000, -1.000000000000000000 ) ) ;
#269 = EDGE_LOOP ( 'NONE', ( #301, #140 ) ) ;
#270 = FACE_OUTER_BOUND ( 'NONE', #97, .T. ) ;
#271 = EDGE_LOOP ( 'NONE', ( #282, #148 ) ) ;
#272 = CYLINDRICAL_SURFACE ( 'NONE', #23, 0.1285000000000000900 ) ;
#273 = PERSON_AND_ORGANIZATION ( #57, #145 ) ;
#274 = APPROVAL_PERSON_ORGANIZATION ( #300, #50, #190 ) ;
#275 = ORIENTED_EDGE ( 'NONE', *, *, #41, .T. ) ;
#276 = LINE ( 'NONE', #77, #211 ) ;
#277 = FACE_BOUND ( 'NONE', #271, .T. ) ;
#278 = FACE_BOUND ( 'NONE', #269, .T. ) ;
#279 = CALENDAR_DATE ( 2010, 23, 6 ) ;
#280 = EDGE_LOOP ( 'NONE', ( #106, #144, #181, #134 ) ) ;
#281 = LINE ( 'NONE', #387, #231 ) ;
#282 = ORIENTED_EDGE ( 'NONE', *, *, #39, .F. ) ;
#283 = ORIENTED_EDGE ( 'NONE', *, *, #44, .F. ) ;
#284 = CIRCLE ( 'NONE', #26, 0.1285000000000000900 ) ;
#285 = CYLINDRICAL_SURFACE ( 'NONE', #27, 0.1285000000000000000 ) ;
#286 = DIRECTION ( 'NONE',  ( 1.000000000000000000, 0.0000000000000000000, 0.0000000000000000000 ) ) ;
#287 = ORIENTED_EDGE ( 'NONE', *, *, #40, .F. ) ;
#288 = ORIENTED_EDGE ( 'NONE', *, *, #2, .F. ) ;
#289 = VECTOR ( 'NONE', #338, 39.37007874015748100 ) ;
#290 = VECTOR ( 'NONE', #254, 39.37007874015748100 ) ;
#291 = PERSON_AND_ORGANIZATION_ROLE ( 'classification_officer' ) ;
#292 = CARTESIAN_POINT ( 'NONE',  ( 0.7850000000000001400, 6.829619984160658000E-017, -0.7869999999999999200 ) ) ;
#293 = ORIENTED_EDGE ( 'NONE', *, *, #45, .F. ) ;
#294 = CARTESIAN_POINT ( 'NONE',  ( 0.7850000000000001400, 0.4922992099999999900, -0.7869999999999999200 ) ) ;
#295 = DATE_AND_TIME ( #203, #167 ) ;
#296 = DIRECTION ( 'NONE',  ( 0.0000000000000000000, -0.008726535498373931200, -0.9999619230641712000 ) ) ;
#297 = DATE_AND_TIME ( #279, #201 ) ;
#298 = CIRCLE ( 'NONE', #22, 0.1285000000000000900 ) ;
#299 = DIRECTION ( 'NONE',  ( 0.0000000000000000000, 0.0000000000000000000, 1.000000000000000000 ) ) ;
#300 = PERSON_AND_ORGANIZATION ( #57, #145 ) ;
#301 = ORIENTED_EDGE ( 'NONE', *, *, #42, .F. ) ;
#302 = CARTESIAN_POINT ( 'NONE',  ( 0.3934999999999999100, 6.829619984160658000E-017, -0.5220000000000000200 ) ) ;
#303 = EDGE_LOOP ( 'NONE', ( #102, #183, #143, #320 ) ) ;
#304 = ORIENTED_EDGE ( 'NONE', *, *, #28, .T. ) ;
#305 = LOCAL_TIME ( 14, 42, 13.00000000000000000, #172 ) ;
#306 = CARTESIAN_POINT ( 'NONE',  ( -0.7850000000000002500, 0.4854311650486725600, -0.7869999999999999200 ) ) ;
#307 = PERSON_AND_ORGANIZATION ( #57, #145 ) ;
#308 = LINE ( 'NONE', #330, #98 ) ;
#309 = EDGE_LOOP ( 'NONE', ( #283, #123 ) ) ;
#310 = DATE_AND_TIME ( #317, #120 ) ;
#311 = CYLINDRICAL_SURFACE ( 'NONE', #19, 0.1285000000000000900 ) ;
#312 = ORIENTED_EDGE ( 'NONE', *, *, #42, .T. ) ;
#313 = PERSON_AND_ORGANIZATION ( #57, #145 ) ;
#314 = ORIENTED_EDGE ( 'NONE', *, *, #25, .T. ) ;
#315 = CALENDAR_DATE ( 2010, 23, 6 ) ;
#316 = CARTESIAN_POINT ( 'NONE',  ( -0.7850000000000002500, -9.613159877505664200E-017, 0.0000000000000000000 ) ) ;
#317 = CALENDAR_DATE ( 2010, 23, 6 ) ;
#318 = EDGE_LOOP ( 'NONE', ( #312, #218, #160, #99 ) ) ;
#319 = DIRECTION ( 'NONE',  ( 1.000000000000000000, 0.0000000000000000000, -0.0000000000000000000 ) ) ;
#320 = ORIENTED_EDGE ( 'NONE', *, *, #39, .T. ) ;
#321 = DIRECTION ( 'NONE',  ( -1.000000000000000000, 2.774580923727526200E-016, 0.0000000000000000000 ) ) ;
#322 = DIRECTION ( 'NONE',  ( 1.000000000000000000, 1.224606353822377500E-016, 0.0000000000000000000 ) ) ;
#323 = DIRECTION ( 'NONE',  ( 1.224606353822377500E-016, -1.000000000000000000, 0.0000000000000000000 ) ) ;
#324 = CARTESIAN_POINT ( 'NONE',  ( 0.1364999999999999500, 0.4899865900354487500, -0.2650000000000001200 ) ) ;
#325 = DIRECTION ( 'NONE',  ( -0.0000000000000000000, 1.000000000000000000, -0.0000000000000000000 ) ) ;
#326 = DIRECTION ( 'NONE',  ( 1.000000000000000000, 1.224606353822378000E-016, 0.0000000000000000000 ) ) ;
#327 = CARTESIAN_POINT ( 'NONE',  ( 0.7850000000000001400, 0.4922992099999999900, -0.7869999999999999200 ) ) ;
#328 = DIRECTION ( 'NONE',  ( 1.000000000000000000, 1.224606353822377500E-016, -0.0000000000000000000 ) ) ;
#329 = CARTESIAN_POINT ( 'NONE',  ( 0.6504999999999997500, 0.4899865900354487500, -0.2650000000000000100 ) ) ;
#330 = CARTESIAN_POINT ( 'NONE',  ( 0.3934999999999999100, -0.5077007900000000100, -0.2650000000000000700 ) ) ;
#331 = CARTESIAN_POINT ( 'NONE',  ( 0.0000000000000000000, 0.0000000000000000000, 0.0000000000000000000 ) ) ;
#332 = CARTESIAN_POINT ( 'NONE',  ( 0.3934999999999999100, 0.4899865900354487000, -0.2650000000000000700 ) ) ;
#333 = DIRECTION ( 'NONE',  ( -0.0000000000000000000, 1.000000000000000000, -0.0000000000000000000 ) ) ;
#334 = VERTEX_POINT ( 'NONE', #210 ) ;
#335 = DIRECTION ( 'NONE',  ( 1.000000000000000000, 1.224606353822377000E-016, 0.0000000000000000000 ) ) ;
#336 = DIRECTION ( 'NONE',  ( -2.774580923727526200E-016, -1.000000000000000000, -0.0000000000000000000 ) ) ;
#337 = CARTESIAN_POINT ( 'NONE',  ( 0.7850000000000001400, 3.490128108393776700E-017, -0.7869999999999999200 ) ) ;
#338 = DIRECTION ( 'NONE',  ( 0.0000000000000000000, 0.0000000000000000000, 1.000000000000000000 ) ) ;
#339 = CARTESIAN_POINT ( 'NONE',  ( -0.3935000000000000700, -6.829619984160658000E-017, -0.3934999999999999600 ) ) ;
#340 = VERTEX_POINT ( 'NONE', #316 ) ;
#341 = VERTEX_POINT ( 'NONE', #158 ) ;
#342 = DIRECTION ( 'NONE',  ( 0.0000000000000000000, 0.0000000000000000000, 1.000000000000000000 ) ) ;
#343 = DIRECTION ( 'NONE',  ( 1.224606353822377500E-016, -1.000000000000000000, 0.0000000000000000000 ) ) ;
#344 = VERTEX_POINT ( 'NONE', #125 ) ;
#345 = CARTESIAN_POINT ( 'NONE',  ( 0.3934999999999999100, 6.829619984160658000E-017, -0.3935000000000000700 ) ) ;
#346 = DIRECTION ( 'NONE',  ( 1.000000000000000000, 1.541674939991119000E-016, -0.0000000000000000000 ) ) ;
#347 = VERTEX_POINT ( 'NONE', #186 ) ;
#348 = VERTEX_POINT ( 'NONE', #302 ) ;
#349 = CARTESIAN_POINT ( 'NONE',  ( -0.3935000000000000700, -6.829619984160658000E-017, -0.3934999999999999600 ) ) ;
#350 = CARTESIAN_POINT ( 'NONE',  ( -0.7850000000000001400, 0.4922992099999999900, 0.0000000000000000000 ) ) ;
#351 = VERTEX_POINT ( 'NONE', #263 ) ;
#352 = VERTEX_POINT ( 'NONE', #248 ) ;
#353 = DIRECTION ( 'NONE',  ( -0.0000000000000000000, 1.000000000000000000, -0.0000000000000000000 ) ) ;
#354 = CARTESIAN_POINT ( 'NONE',  ( 0.3934999999999999100, -0.5077007900000000100, -0.5220000000000000200 ) ) ;
#355 = DIRECTION ( 'NONE',  ( 1.224606353822377500E-016, -1.000000000000000000, 0.0000000000000000000 ) ) ;
#356 = CARTESIAN_POINT ( 'NONE',  ( 0.7849999999999999200, 0.4922992099999999900, 0.0000000000000000000 ) ) ;
#357 = DIRECTION ( 'NONE',  ( -2.774580923727526200E-016, -1.000000000000000000, -0.0000000000000000000 ) ) ;
#358 = CARTESIAN_POINT ( 'NONE',  ( -1.735000000000000500, 0.4854311650486724500, -0.7869999999999999200 ) ) ;
#359 = DIRECTION ( 'NONE',  ( 1.000000000000000000, 1.224606353822377000E-016, 0.0000000000000000000 ) ) ;
#360 = DIRECTION ( 'NONE',  ( 2.421247892401939000E-018, 0.008726535498373931200, 0.9999619230641712000 ) ) ;
#361 = CARTESIAN_POINT ( 'NONE',  ( 0.3934999999999999100, 0.4877437850132236900, -0.5220000000000000200 ) ) ;
#362 = DIRECTION ( 'NONE',  ( 1.000000000000000000, 1.224606353822378000E-016, 0.0000000000000000000 ) ) ;
#363 = DIRECTION ( 'NONE',  ( -0.0000000000000000000, 1.000000000000000000, -0.0000000000000000000 ) ) ;
#364 = CARTESIAN_POINT ( 'NONE',  ( -0.7850000000000002500, -9.613159877505664200E-017, 0.0000000000000000000 ) ) ;
#365 = CARTESIAN_POINT ( 'NONE',  ( 0.1364999999999999500, 0.4877437850132236300, -0.5220000000000002400 ) ) ;
#366 = CARTESIAN_POINT ( 'NONE',  ( 0.3934999999999999100, 6.829619984160658000E-017, -0.3935000000000000700 ) ) ;
#367 = CARTESIAN_POINT ( 'NONE',  ( -0.1365000000000000100, 0.4899865900354487500, -0.2649999999999999000 ) ) ;
#368 = CARTESIAN_POINT ( 'NONE',  ( 0.3934999999999999100, 0.4877437850132236900, -0.5220000000000000200 ) ) ;
#369 = CARTESIAN_POINT ( 'NONE',  ( -0.3935000000000000700, 0.4877437850132236900, -0.5220000000000000200 ) ) ;
#370 = CARTESIAN_POINT ( 'NONE',  ( -0.3935000000000000700, -0.5077007900000000100, -0.2649999999999999000 ) ) ;
#371 = DIRECTION ( 'NONE',  ( 0.0000000000000000000, -0.008726535498373932900, -0.9999619230641712000 ) ) ;
#372 = VERTEX_POINT ( 'NONE', #80 ) ;
#373 = DIRECTION ( 'NONE',  ( 1.224606353822377500E-016, -1.000000000000000000, 0.0000000000000000000 ) ) ;
#374 = CARTESIAN_POINT ( 'NONE',  ( -0.3935000000000000700, 0.4899865900354487000, -0.2649999999999999000 ) ) ;
#375 = DIRECTION ( 'NONE',  ( -1.000000000000000000, -0.0000000000000000000, -0.0000000000000000000 ) ) ;
#376 = VERTEX_POINT ( 'NONE', #89 ) ;
#377 = CARTESIAN_POINT ( 'NONE',  ( 0.6504999999999997500, 0.4877437850132238000, -0.5220000000000000200 ) ) ;
#378 = VERTEX_POINT ( 'NONE', #306 ) ;
#379 = CARTESIAN_POINT ( 'NONE',  ( -0.1365000000000000100, 0.4877437850132238000, -0.5220000000000000200 ) ) ;
#380 = CARTESIAN_POINT ( 'NONE',  ( -0.7850000000000001400, 0.4853941982898348200, -0.7912359709948767500 ) ) ;
#381 = CARTESIAN_POINT ( 'NONE',  ( -0.7850000000000002500, -9.613159877505664200E-017, -0.7869999999999999200 ) ) ;
#382 = VERTEX_POINT ( 'NONE', #79 ) ;
#383 = VERTEX_POINT ( 'NONE', #196 ) ;
#384 = VERTEX_POINT ( 'NONE', #76 ) ;
#385 = VERTEX_POINT ( 'NONE', #223 ) ;
#386 = CARTESIAN_POINT ( 'NONE',  ( 0.3934999999999999100, 0.4899865900354487000, -0.2650000000000000700 ) ) ;
#387 = CARTESIAN_POINT ( 'NONE',  ( -0.7850000000000002500, -9.613159877505664200E-017, -0.7869999999999999200 ) ) ;
#388 = VERTEX_POINT ( 'NONE', #224 ) ;
ENDSEC;
END-ISO-10303-21;
