ISO-10303-21;
HEADER;
FILE_DESCRIPTION (( 'STEP AP203' ),
    '1' );
FILE_NAME ('D030459-v3_aLIGO_SUS_HSTS_Upper Blade Clamp, Lower Side.STEP',
    '2010-06-28T13:20:44',
    ( 'Dwayne Giardina' ),
    ( 'CA Institute of Technology' ),
    'SwSTEP 2.0',
    'SolidWorks 2009',
    '' );
FILE_SCHEMA (( 'CONFIG_CONTROL_DESIGN' ));
ENDSEC;

DATA;
#1 = CC_DESIGN_PERSON_AND_ORGANIZATION_ASSIGNMENT ( #265, #77, ( #12 ) ) ;
#2 = AXIS2_PLACEMENT_3D ( 'NONE', #69, #76, #75 ) ;
#3 = AXIS2_PLACEMENT_3D ( 'NONE', #100, #94, #98 ) ;
#4 = AXIS2_PLACEMENT_3D ( 'NONE', #116, #118, #115 ) ;
#5 = CC_DESIGN_PERSON_AND_ORGANIZATION_ASSIGNMENT ( #371, #78, ( #35 ) ) ;
#6 = EDGE_CURVE ( 'NONE', #138, #182, #283, .T. ) ;
#7 = AXIS2_PLACEMENT_3D ( 'NONE', #130, #129, #134 ) ;
#8 = APPROVAL ( #82, 'UNSPECIFIED' ) ;
#9 = AXIS2_PLACEMENT_3D ( 'NONE', #150, #162, #143 ) ;
#10 = EDGE_CURVE ( 'NONE', #190, #185, #287, .T. ) ;
#11 = CC_DESIGN_DATE_AND_TIME_ASSIGNMENT ( #377, #81, ( #35 ) ) ;
#12 = PRODUCT_DEFINITION_FORMATION_WITH_SPECIFIED_SOURCE ( 'ANY', '', #214, .NOT_KNOWN. ) ;
#13 = EDGE_CURVE ( 'NONE', #198, #187, #326, .T. ) ;
#14 = EDGE_CURVE ( 'NONE', #192, #173, #327, .T. ) ;
#15 = CC_DESIGN_APPROVAL ( #19, ( #35 ) ) ;
#16 = AXIS2_PLACEMENT_3D ( 'NONE', #107, #104, #99 ) ;
#17 = EDGE_CURVE ( 'NONE', #188, #138, #331, .T. ) ;
#18 = AXIS2_PLACEMENT_3D ( 'NONE', #191, #133, #65 ) ;
#19 = APPROVAL ( #79, 'UNSPECIFIED' ) ;
#20 = CC_DESIGN_PERSON_AND_ORGANIZATION_ASSIGNMENT ( #364, #70, ( #214 ) ) ;
#21 = CC_DESIGN_DATE_AND_TIME_ASSIGNMENT ( #294, #89, ( #262 ) ) ;
#22 = AXIS2_PLACEMENT_3D ( 'NONE', #199, #204, #164 ) ;
#23 = EDGE_CURVE ( 'NONE', #205, #190, #329, .T. ) ;
#24 = AXIS2_PLACEMENT_3D ( 'NONE', #210, #211, #169 ) ;
#25 = EDGE_CURVE ( 'NONE', #158, #152, #335, .T. ) ;
#26 = EDGE_CURVE ( 'NONE', #163, #188, #332, .T. ) ;
#27 = EDGE_CURVE ( 'NONE', #192, #152, #333, .T. ) ;
#28 = EDGE_CURVE ( 'NONE', #185, #182, #336, .T. ) ;
#29 = EDGE_CURVE ( 'NONE', #173, #192, #352, .T. ) ;
#30 = CC_DESIGN_APPROVAL ( #41, ( #262 ) ) ;
#31 = EDGE_CURVE ( 'NONE', #190, #138, #341, .T. ) ;
#32 = EDGE_CURVE ( 'NONE', #187, #197, #344, .T. ) ;
#33 = EDGE_CURVE ( 'NONE', #196, #197, #350, .T. ) ;
#34 = EDGE_CURVE ( 'NONE', #187, #198, #347, .T. ) ;
#35 = PRODUCT_DEFINITION ( 'UNKNOWN', '', #12, #61 ) ;
#36 = CC_DESIGN_PERSON_AND_ORGANIZATION_ASSIGNMENT ( #261, #86, ( #262 ) ) ;
#37 = AXIS2_PLACEMENT_3D ( 'NONE', #117, #114, #120 ) ;
#38 = CC_DESIGN_APPROVAL ( #8, ( #12 ) ) ;
#39 = CC_DESIGN_PERSON_AND_ORGANIZATION_ASSIGNMENT ( #263, #84, ( #12 ) ) ;
#40 = AXIS2_PLACEMENT_3D ( 'NONE', #102, #105, #106 ) ;
#41 = APPROVAL ( #87, 'UNSPECIFIED' ) ;
#42 = EDGE_CURVE ( 'NONE', #186, #205, #339, .T. ) ;
#43 = EDGE_CURVE ( 'NONE', #185, #186, #351, .T. ) ;
#44 = EDGE_CURVE ( 'NONE', #173, #158, #340, .T. ) ;
#45 = EDGE_CURVE ( 'NONE', #197, #196, #355, .T. ) ;
#46 = EDGE_CURVE ( 'NONE', #182, #163, #353, .T. ) ;
#47 = AXIS2_PLACEMENT_3D ( 'NONE', #142, #170, #178 ) ;
#48 = EDGE_CURVE ( 'NONE', #152, #158, #313, .T. ) ;
#49 = AXIS2_PLACEMENT_3D ( 'NONE', #113, #109, #108 ) ;
#50 = PRODUCT_RELATED_PRODUCT_CATEGORY ( 'detail', '', ( #214 ) ) ;
#51 = AXIS2_PLACEMENT_3D ( 'NONE', #112, #111, #95 ) ;
#52 = AXIS2_PLACEMENT_3D ( 'NONE', #140, #166, #212 ) ;
#53 = AXIS2_PLACEMENT_3D ( 'NONE', #103, #97, #92 ) ;
#54 = EDGE_CURVE ( 'NONE', #198, #196, #312, .T. ) ;
#55 = EDGE_CURVE ( 'NONE', #205, #188, #311, .T. ) ;
#56 = EDGE_CURVE ( 'NONE', #186, #163, #309, .T. ) ;
#57 = CC_DESIGN_SECURITY_CLASSIFICATION ( #262, ( #12 ) ) ;
#58 = AXIS2_PLACEMENT_3D ( 'NONE', #145, #208, #161 ) ;
#59 = AXIS2_PLACEMENT_3D ( 'NONE', #153, #201, #154 ) ;
#60 = AXIS2_PLACEMENT_3D ( 'NONE', #155, #168, #200 ) ;
#61 = DESIGN_CONTEXT ( 'detailed design', #72, 'design' ) ;
#62 = PRODUCT_DEFINITION_SHAPE ( 'NONE', 'NONE',  #35 ) ;
#63 = MECHANICAL_CONTEXT ( 'NONE', #74, 'mechanical' ) ;
#64 =( LENGTH_UNIT ( ) NAMED_UNIT ( * ) SI_UNIT ( $, .METRE. ) );
#65 = DIRECTION ( 'NONE',  ( 0.0000000000000000000, 0.0000000000000000000, 1.000000000000000000 ) ) ;
#66 =( NAMED_UNIT ( * ) SI_UNIT ( $, .STERADIAN. ) SOLID_ANGLE_UNIT ( ) );
#67 =( NAMED_UNIT ( * ) PLANE_ANGLE_UNIT ( ) SI_UNIT ( $, .RADIAN. ) );
#68 =( CONVERSION_BASED_UNIT ( 'INCH', #362 ) LENGTH_UNIT ( ) NAMED_UNIT ( #215 ) );
#69 = CARTESIAN_POINT ( 'NONE',  ( 0.0000000000000000000, 0.0000000000000000000, 0.0000000000000000000 ) ) ;
#70 = PERSON_AND_ORGANIZATION_ROLE ( 'design_owner' ) ;
#71 = APPLICATION_PROTOCOL_DEFINITION ( 'international standard', 'config_control_design', 1994, #74 ) ;
#72 = APPLICATION_CONTEXT ( 'configuration controlled 3d designs of mechanical parts and assemblies' ) ;
#73 = APPLICATION_PROTOCOL_DEFINITION ( 'international standard', 'config_control_design', 1994, #72 ) ;
#74 = APPLICATION_CONTEXT ( 'configuration controlled 3d designs of mechanical parts and assemblies' ) ;
#75 = DIRECTION ( 'NONE',  ( 1.000000000000000000, 0.0000000000000000000, 0.0000000000000000000 ) ) ;
#76 = DIRECTION ( 'NONE',  ( 0.0000000000000000000, 0.0000000000000000000, 1.000000000000000000 ) ) ;
#77 = PERSON_AND_ORGANIZATION_ROLE ( 'creator' ) ;
#78 = PERSON_AND_ORGANIZATION_ROLE ( 'creator' ) ;
#79 = APPROVAL_STATUS ( 'not_yet_approved' ) ;
#80 = APPROVAL_ROLE ( '' ) ;
#81 = DATE_TIME_ROLE ( 'creation_date' ) ;
#82 = APPROVAL_STATUS ( 'not_yet_approved' ) ;
#83 = APPROVAL_ROLE ( '' ) ;
#84 = PERSON_AND_ORGANIZATION_ROLE ( 'design_supplier' ) ;
#85 = SECURITY_CLASSIFICATION_LEVEL ( 'unclassified' ) ;
#86 = PERSON_AND_ORGANIZATION_ROLE ( 'classification_officer' ) ;
#87 = APPROVAL_STATUS ( 'not_yet_approved' ) ;
#88 = APPROVAL_ROLE ( '' ) ;
#89 = DATE_TIME_ROLE ( 'classification_date' ) ;
#90 = PLANE ( 'NONE',  #53 ) ;
#91 = CARTESIAN_POINT ( 'NONE',  ( 0.7850000000000002500, -0.2460629921259842600, -0.3934999999999999600 ) ) ;
#92 = DIRECTION ( 'NONE',  ( 0.0000000000000000000, -0.0000000000000000000, -1.000000000000000000 ) ) ;
#93 = PLANE ( 'NONE',  #49 ) ;
#94 = DIRECTION ( 'NONE',  ( -0.0000000000000000000, 1.000000000000000000, -0.0000000000000000000 ) ) ;
#95 = DIRECTION ( 'NONE',  ( 0.0000000000000000000, 0.0000000000000000000, 1.000000000000000000 ) ) ;
#96 = CARTESIAN_POINT ( 'NONE',  ( -0.7849999999999999200, 0.2460629921259842600, -0.3934999999999999600 ) ) ;
#97 = DIRECTION ( 'NONE',  ( 0.0000000000000000000, -1.000000000000000000, 0.0000000000000000000 ) ) ;
#98 = DIRECTION ( 'NONE',  ( 0.0000000000000000000, 0.0000000000000000000, 1.000000000000000000 ) ) ;
#99 = DIRECTION ( 'NONE',  ( 0.0000000000000000000, 0.0000000000000000000, 1.000000000000000000 ) ) ;
#100 = CARTESIAN_POINT ( 'NONE',  ( -0.3940000000000000200, 0.2460629921259842600, -6.829619984160658000E-017 ) ) ;
#101 = PLANE ( 'NONE',  #40 ) ;
#102 = CARTESIAN_POINT ( 'NONE',  ( 0.7850000000000002500, -0.2460629921259842600, 0.3934999999999999600 ) ) ;
#103 = CARTESIAN_POINT ( 'NONE',  ( -0.7849999999999999200, -0.2460629921259842600, -0.3934999999999999600 ) ) ;
#104 = DIRECTION ( 'NONE',  ( -0.0000000000000000000, 1.000000000000000000, -0.0000000000000000000 ) ) ;
#105 = DIRECTION ( 'NONE',  ( -0.0000000000000000000, 0.0000000000000000000, 1.000000000000000000 ) ) ;
#106 = DIRECTION ( 'NONE',  ( 1.000000000000000000, 0.0000000000000000000, 0.0000000000000000000 ) ) ;
#107 = CARTESIAN_POINT ( 'NONE',  ( -0.3940000000000000200, 0.2460629921259842600, -6.829619984160658000E-017 ) ) ;
#108 = DIRECTION ( 'NONE',  ( -0.0000000000000000000, 0.0000000000000000000, -1.000000000000000000 ) ) ;
#109 = DIRECTION ( 'NONE',  ( 1.000000000000000000, 0.0000000000000000000, -0.0000000000000000000 ) ) ;
#110 = CARTESIAN_POINT ( 'NONE',  ( 0.7850000000000002500, -0.2460629921259842600, 0.3934999999999999600 ) ) ;
#111 = DIRECTION ( 'NONE',  ( -0.0000000000000000000, 1.000000000000000000, -0.0000000000000000000 ) ) ;
#112 = CARTESIAN_POINT ( 'NONE',  ( 0.3929999999999999600, 0.2460629921259842600, -1.440622965408888800E-016 ) ) ;
#113 = CARTESIAN_POINT ( 'NONE',  ( 0.7850000000000002500, 0.2460629921259842600, -0.3934999999999999600 ) ) ;
#114 = DIRECTION ( 'NONE',  ( -1.000000000000000000, 0.0000000000000000000, 0.0000000000000000000 ) ) ;
#115 = DIRECTION ( 'NONE',  ( 0.0000000000000000000, -0.0000000000000000000, 1.000000000000000000 ) ) ;
#116 = CARTESIAN_POINT ( 'NONE',  ( -0.7849999999999999200, 0.2460629921259842600, -0.3934999999999999600 ) ) ;
#117 = CARTESIAN_POINT ( 'NONE',  ( -0.7849999999999999200, 0.2460629921259842600, -0.3934999999999999600 ) ) ;
#118 = DIRECTION ( 'NONE',  ( 0.0000000000000000000, 1.000000000000000000, 0.0000000000000000000 ) ) ;
#119 = PLANE ( 'NONE',  #4 ) ;
#120 = DIRECTION ( 'NONE',  ( 0.0000000000000000000, 0.0000000000000000000, 1.000000000000000000 ) ) ;
#121 = CARTESIAN_POINT ( 'NONE',  ( 0.7850000000000002500, 0.2460629921259842600, -0.3934999999999999600 ) ) ;
#122 = CARTESIAN_POINT ( 'NONE',  ( -0.3940000000000000200, -0.2460629921259842600, 0.1284999999999998100 ) ) ;
#123 = CARTESIAN_POINT ( 'NONE',  ( -0.7849999999999999200, 0.2460629921259842600, 0.3934999999999999600 ) ) ;
#124 = CARTESIAN_POINT ( 'NONE',  ( -0.7849999999999999200, -0.2460629921259842600, -0.3934999999999999600 ) ) ;
#125 = CARTESIAN_POINT ( 'NONE',  ( 0.3929999999999999600, -0.2460629921259842600, -0.1285000000000000000 ) ) ;
#126 = CARTESIAN_POINT ( 'NONE',  ( -0.3940000000000000200, 0.2460629921259842600, -0.1285000000000000000 ) ) ;
#127 = CARTESIAN_POINT ( 'NONE',  ( -0.3940000000000000200, 0.2460629921259842600, 0.1284999999999998600 ) ) ;
#128 = CARTESIAN_POINT ( 'NONE',  ( -0.3940000000000000200, -0.2460629921259842600, -0.1284999999999999500 ) ) ;
#129 = DIRECTION ( 'NONE',  ( -0.0000000000000000000, 0.0000000000000000000, 1.000000000000000000 ) ) ;
#130 = CARTESIAN_POINT ( 'NONE',  ( 0.7850000000000002500, -0.2460629921259842600, -0.3934999999999999600 ) ) ;
#131 = CARTESIAN_POINT ( 'NONE',  ( 0.3929999999999999600, -0.2460629921259842600, 0.1284999999999997300 ) ) ;
#132 = PLANE ( 'NONE',  #37 ) ;
#133 = DIRECTION ( 'NONE',  ( -0.0000000000000000000, 1.000000000000000000, -0.0000000000000000000 ) ) ;
#134 = DIRECTION ( 'NONE',  ( 1.000000000000000000, 0.0000000000000000000, 0.0000000000000000000 ) ) ;
#135 = CARTESIAN_POINT ( 'NONE',  ( -0.7849999999999999200, -0.2460629921259842600, 0.3934999999999999600 ) ) ;
#136 = PLANE ( 'NONE',  #7 ) ;
#137 = DIRECTION ( 'NONE',  ( 1.000000000000000000, 0.0000000000000000000, 0.0000000000000000000 ) ) ;
#138 = VERTEX_POINT ( 'NONE', #135 ) ;
#139 = CARTESIAN_POINT ( 'NONE',  ( -0.7849999999999999200, -0.2460629921259842600, 0.3934999999999999600 ) ) ;
#140 = CARTESIAN_POINT ( 'NONE',  ( 0.3929999999999999600, 0.2460629921259842600, -1.440622965408888800E-016 ) ) ;
#141 = DIRECTION ( 'NONE',  ( 0.0000000000000000000, -1.000000000000000000, 0.0000000000000000000 ) ) ;
#142 = CARTESIAN_POINT ( 'NONE',  ( 0.3929999999999999600, -0.2460629921259842600, -1.440622965408888800E-016 ) ) ;
#143 = DIRECTION ( 'NONE',  ( 0.0000000000000000000, 0.0000000000000000000, 1.000000000000000000 ) ) ;
#144 = DIRECTION ( 'NONE',  ( -0.0000000000000000000, 1.000000000000000000, -0.0000000000000000000 ) ) ;
#145 = CARTESIAN_POINT ( 'NONE',  ( 0.3929999999999999600, -0.2460629921259842600, -1.440622965408888800E-016 ) ) ;
#146 = DIRECTION ( 'NONE',  ( -0.0000000000000000000, 1.000000000000000000, -0.0000000000000000000 ) ) ;
#147 = DIRECTION ( 'NONE',  ( -0.0000000000000000000, 1.000000000000000000, -0.0000000000000000000 ) ) ;
#148 = DIRECTION ( 'NONE',  ( -1.000000000000000000, -0.0000000000000000000, -0.0000000000000000000 ) ) ;
#149 = CARTESIAN_POINT ( 'NONE',  ( -0.7849999999999999200, -0.2460629921259842600, -0.3934999999999999600 ) ) ;
#150 = CARTESIAN_POINT ( 'NONE',  ( -0.3940000000000000200, -0.2460629921259842600, -6.829619984160658000E-017 ) ) ;
#151 = CARTESIAN_POINT ( 'NONE',  ( -0.3940000000000000200, 0.2460629921259842600, -0.1284999999999999800 ) ) ;
#152 = VERTEX_POINT ( 'NONE', #189 ) ;
#153 = CARTESIAN_POINT ( 'NONE',  ( -0.3940000000000000200, 0.2460629921259842600, -6.829619984160658000E-017 ) ) ;
#154 = DIRECTION ( 'NONE',  ( 0.0000000000000000000, 0.0000000000000000000, 1.000000000000000000 ) ) ;
#155 = CARTESIAN_POINT ( 'NONE',  ( -0.3940000000000000200, -0.2460629921259842600, -6.829619984160658000E-017 ) ) ;
#156 = CARTESIAN_POINT ( 'NONE',  ( 0.7850000000000002500, -0.2460629921259842600, -0.3934999999999999600 ) ) ;
#157 = CARTESIAN_POINT ( 'NONE',  ( -0.7849999999999999200, 0.2460629921259842600, 0.3934999999999999600 ) ) ;
#158 = VERTEX_POINT ( 'NONE', #193 ) ;
#159 = CARTESIAN_POINT ( 'NONE',  ( -0.7849999999999999200, 0.2460629921259842600, -0.3934999999999999600 ) ) ;
#160 = DIRECTION ( 'NONE',  ( 0.0000000000000000000, 0.0000000000000000000, 1.000000000000000000 ) ) ;
#161 = DIRECTION ( 'NONE',  ( 0.0000000000000000000, 0.0000000000000000000, 1.000000000000000000 ) ) ;
#162 = DIRECTION ( 'NONE',  ( -0.0000000000000000000, 1.000000000000000000, -0.0000000000000000000 ) ) ;
#163 = VERTEX_POINT ( 'NONE', #184 ) ;
#164 = DIRECTION ( 'NONE',  ( 0.0000000000000000000, 0.0000000000000000000, 1.000000000000000000 ) ) ;
#165 = DIRECTION ( 'NONE',  ( -0.0000000000000000000, 1.000000000000000000, -0.0000000000000000000 ) ) ;
#166 = DIRECTION ( 'NONE',  ( -0.0000000000000000000, 1.000000000000000000, -0.0000000000000000000 ) ) ;
#167 = DIRECTION ( 'NONE',  ( 0.0000000000000000000, 0.0000000000000000000, 1.000000000000000000 ) ) ;
#168 = DIRECTION ( 'NONE',  ( -0.0000000000000000000, 1.000000000000000000, -0.0000000000000000000 ) ) ;
#169 = DIRECTION ( 'NONE',  ( 0.0000000000000000000, 0.0000000000000000000, 1.000000000000000000 ) ) ;
#170 = DIRECTION ( 'NONE',  ( -0.0000000000000000000, 1.000000000000000000, -0.0000000000000000000 ) ) ;
#171 = CARTESIAN_POINT ( 'NONE',  ( 0.3929999999999999600, 0.2460629921259842600, -0.1285000000000000300 ) ) ;
#172 = DIRECTION ( 'NONE',  ( -1.000000000000000000, -0.0000000000000000000, -0.0000000000000000000 ) ) ;
#173 = VERTEX_POINT ( 'NONE', #131 ) ;
#174 = DIRECTION ( 'NONE',  ( -0.0000000000000000000, 1.000000000000000000, -0.0000000000000000000 ) ) ;
#175 = CARTESIAN_POINT ( 'NONE',  ( -0.7849999999999999200, 0.2460629921259842600, -0.3934999999999999600 ) ) ;
#176 = CARTESIAN_POINT ( 'NONE',  ( 0.7850000000000002500, 0.2460629921259842600, 0.3934999999999999600 ) ) ;
#177 = CARTESIAN_POINT ( 'NONE',  ( 0.7850000000000002500, 0.2460629921259842600, -0.3934999999999999600 ) ) ;
#178 = DIRECTION ( 'NONE',  ( 0.0000000000000000000, 0.0000000000000000000, 1.000000000000000000 ) ) ;
#179 = CARTESIAN_POINT ( 'NONE',  ( -0.7849999999999999200, 0.2460629921259842600, 0.3934999999999999600 ) ) ;
#180 = CARTESIAN_POINT ( 'NONE',  ( -0.7849999999999999200, 0.2460629921259842600, -0.3934999999999999600 ) ) ;
#181 = DIRECTION ( 'NONE',  ( 0.0000000000000000000, 0.0000000000000000000, 1.000000000000000000 ) ) ;
#182 = VERTEX_POINT ( 'NONE', #110 ) ;
#183 = CARTESIAN_POINT ( 'NONE',  ( -0.7849999999999999200, -0.2460629921259842600, -0.3934999999999999600 ) ) ;
#184 = CARTESIAN_POINT ( 'NONE',  ( 0.7850000000000002500, 0.2460629921259842600, 0.3934999999999999600 ) ) ;
#185 = VERTEX_POINT ( 'NONE', #91 ) ;
#186 = VERTEX_POINT ( 'NONE', #121 ) ;
#187 = VERTEX_POINT ( 'NONE', #122 ) ;
#188 = VERTEX_POINT ( 'NONE', #123 ) ;
#189 = CARTESIAN_POINT ( 'NONE',  ( 0.3929999999999999600, 0.2460629921259842600, -0.1285000000000000900 ) ) ;
#190 = VERTEX_POINT ( 'NONE', #124 ) ;
#191 = CARTESIAN_POINT ( 'NONE',  ( 0.3929999999999999600, 0.2460629921259842600, -1.440622965408888800E-016 ) ) ;
#192 = VERTEX_POINT ( 'NONE', #125 ) ;
#193 = CARTESIAN_POINT ( 'NONE',  ( 0.3929999999999999600, 0.2460629921259842600, 0.1284999999999998100 ) ) ;
#194 = CARTESIAN_POINT ( 'NONE',  ( 0.7850000000000002500, 0.2460629921259842600, -0.3934999999999999600 ) ) ;
#195 = DIRECTION ( 'NONE',  ( 0.0000000000000000000, 0.0000000000000000000, 1.000000000000000000 ) ) ;
#196 = VERTEX_POINT ( 'NONE', #126 ) ;
#197 = VERTEX_POINT ( 'NONE', #127 ) ;
#198 = VERTEX_POINT ( 'NONE', #128 ) ;
#199 = CARTESIAN_POINT ( 'NONE',  ( -0.3940000000000000200, 0.2460629921259842600, -6.829619984160658000E-017 ) ) ;
#200 = DIRECTION ( 'NONE',  ( 0.0000000000000000000, 0.0000000000000000000, 1.000000000000000000 ) ) ;
#201 = DIRECTION ( 'NONE',  ( -0.0000000000000000000, 1.000000000000000000, -0.0000000000000000000 ) ) ;
#202 = DIRECTION ( 'NONE',  ( 1.000000000000000000, 0.0000000000000000000, 0.0000000000000000000 ) ) ;
#203 = CARTESIAN_POINT ( 'NONE',  ( 0.3929999999999999600, 0.2460629921259842600, 0.1284999999999997800 ) ) ;
#204 = DIRECTION ( 'NONE',  ( -0.0000000000000000000, 1.000000000000000000, -0.0000000000000000000 ) ) ;
#205 = VERTEX_POINT ( 'NONE', #96 ) ;
#206 = DIRECTION ( 'NONE',  ( -0.0000000000000000000, 1.000000000000000000, -0.0000000000000000000 ) ) ;
#207 = CARTESIAN_POINT ( 'NONE',  ( -0.3940000000000000200, 0.2460629921259842600, 0.1284999999999998400 ) ) ;
#208 = DIRECTION ( 'NONE',  ( -0.0000000000000000000, 1.000000000000000000, -0.0000000000000000000 ) ) ;
#209 = DIRECTION ( 'NONE',  ( 0.0000000000000000000, -1.000000000000000000, 0.0000000000000000000 ) ) ;
#210 = CARTESIAN_POINT ( 'NONE',  ( 0.3929999999999999600, 0.2460629921259842600, -1.440622965408888800E-016 ) ) ;
#211 = DIRECTION ( 'NONE',  ( -0.0000000000000000000, 1.000000000000000000, -0.0000000000000000000 ) ) ;
#212 = DIRECTION ( 'NONE',  ( 0.0000000000000000000, 0.0000000000000000000, 1.000000000000000000 ) ) ;
#213 = PERSON ( 'UNSPECIFIED', 'UNSPECIFIED', 'UNSPECIFIED', ('UNSPECIFIED'), ('UNSPECIFIED'), ('UNSPECIFIED') ) ;
#214 = PRODUCT ( 'D030459-v3_aLIGO_SUS_HSTS_Upper Blade Clamp, Lower Side', 'D030459-v3_aLIGO_SUS_HSTS_Upper Blade Clamp, Lower Side', '', ( #63 ) ) ;
#215 = DIMENSIONAL_EXPONENTS ( 1.000000000000000000, 0.0000000000000000000, 0.0000000000000000000, 0.0000000000000000000, 0.0000000000000000000, 0.0000000000000000000, 0.0000000000000000000 ) ;
#216 = ADVANCED_FACE ( 'NONE', ( #310, #316, #324 ), #90, .T. ) ;
#217 = ADVANCED_FACE ( 'NONE', ( #320 ), #93, .T. ) ;
#218 = ADVANCED_FACE ( 'NONE', ( #322 ), #318, .F. ) ;
#219 = ADVANCED_FACE ( 'NONE', ( #323 ), #101, .T. ) ;
#220 = ADVANCED_FACE ( 'NONE', ( #317 ), #319, .F. ) ;
#221 = ADVANCED_FACE ( 'NONE', ( #321 ), #314, .F. ) ;
#222 = ADVANCED_FACE ( 'NONE', ( #356 ), #136, .F. ) ;
#223 = ADVANCED_FACE ( 'NONE', ( #354 ), #132, .T. ) ;
#224 = ADVANCED_FACE ( 'NONE', ( #357, #358, #359 ), #119, .T. ) ;
#225 = ADVANCED_FACE ( 'NONE', ( #360 ), #361, .F. ) ;
#226 = ORIENTED_EDGE ( 'NONE', *, *, #48, .T. ) ;
#227 = EDGE_LOOP ( 'NONE', ( #304, #382, #385, #383 ) ) ;
#228 = ORIENTED_EDGE ( 'NONE', *, *, #23, .T. ) ;
#229 = EDGE_LOOP ( 'NONE', ( #379, #388 ) ) ;
#230 = EDGE_LOOP ( 'NONE', ( #303, #232 ) ) ;
#231 = EDGE_LOOP ( 'NONE', ( #387, #237, #305, #306 ) ) ;
#232 = ORIENTED_EDGE ( 'NONE', *, *, #33, .F. ) ;
#233 = EDGE_LOOP ( 'NONE', ( #274, #256, #298, #243 ) ) ;
#234 = ORIENTED_EDGE ( 'NONE', *, *, #10, .T. ) ;
#235 = EDGE_LOOP ( 'NONE', ( #279, #273, #307, #280 ) ) ;
#236 = ORIENTED_EDGE ( 'NONE', *, *, #28, .T. ) ;
#237 = ORIENTED_EDGE ( 'NONE', *, *, #29, .F. ) ;
#238 = EDGE_LOOP ( 'NONE', ( #293, #286 ) ) ;
#239 = EDGE_LOOP ( 'NONE', ( #300, #301, #299, #277 ) ) ;
#240 = EDGE_LOOP ( 'NONE', ( #285, #289, #250, #282 ) ) ;
#241 = EDGE_LOOP ( 'NONE', ( #278, #276 ) ) ;
#242 = EDGE_LOOP ( 'NONE', ( #275, #248, #234, #236 ) ) ;
#243 = ORIENTED_EDGE ( 'NONE', *, *, #55, .T. ) ;
#244 = ORIENTED_EDGE ( 'NONE', *, *, #27, .T. ) ;
#245 = EDGE_LOOP ( 'NONE', ( #257, #302, #380, #381 ) ) ;
#246 = ORIENTED_EDGE ( 'NONE', *, *, #14, .F. ) ;
#247 = EDGE_LOOP ( 'NONE', ( #251, #281, #228, #252 ) ) ;
#248 = ORIENTED_EDGE ( 'NONE', *, *, #31, .F. ) ;
#249 = EDGE_LOOP ( 'NONE', ( #246, #244, #226, #384 ) ) ;
#250 = ORIENTED_EDGE ( 'NONE', *, *, #23, .F. ) ;
#251 = ORIENTED_EDGE ( 'NONE', *, *, #17, .F. ) ;
#252 = ORIENTED_EDGE ( 'NONE', *, *, #31, .T. ) ;
#253 = ADVANCED_BREP_SHAPE_REPRESENTATION ( 'D030459-v3_aLIGO_SUS_HSTS_Upper Blade Clamp, Lower Side', ( #255, #2 ), #269 ) ;
#254 = UNCERTAINTY_MEASURE_WITH_UNIT (LENGTH_MEASURE( 1.000000000000000100E-005 ), #68, 'distance_accuracy_value', 'NONE');
#255 = MANIFOLD_SOLID_BREP ( 'NONE', #284 ) ;
#256 = ORIENTED_EDGE ( 'NONE', *, *, #56, .F. ) ;
#257 = ORIENTED_EDGE ( 'NONE', *, *, #54, .F. ) ;
#258 = VECTOR ( 'NONE', #174, 39.37007874015748100 ) ;
#259 = LOCAL_TIME ( 8, 20, 44.00000000000000000, #272 ) ;
#260 = APPROVAL_DATE_TIME ( #292, #41 ) ;
#261 = PERSON_AND_ORGANIZATION ( #213, #365 ) ;
#262 = SECURITY_CLASSIFICATION ( '', '', #85 ) ;
#263 = PERSON_AND_ORGANIZATION ( #213, #365 ) ;
#264 = PERSON_AND_ORGANIZATION ( #213, #365 ) ;
#265 = PERSON_AND_ORGANIZATION ( #213, #365 ) ;
#266 = APPROVAL_DATE_TIME ( #267, #8 ) ;
#267 = DATE_AND_TIME ( #268, #386 ) ;
#268 = CALENDAR_DATE ( 2010, 28, 6 ) ;
#269 =( GEOMETRIC_REPRESENTATION_CONTEXT ( 3 ) GLOBAL_UNCERTAINTY_ASSIGNED_CONTEXT ( ( #254 ) ) GLOBAL_UNIT_ASSIGNED_CONTEXT ( ( #68, #67, #66 ) ) REPRESENTATION_CONTEXT ( 'NONE', 'WORKASPACE' ) );
#270 = PERSON_AND_ORGANIZATION ( #213, #365 ) ;
#271 = SHAPE_DEFINITION_REPRESENTATION ( #62, #253 ) ;
#272 = COORDINATED_UNIVERSAL_TIME_OFFSET ( 6, 0, .BEHIND. ) ;
#273 = ORIENTED_EDGE ( 'NONE', *, *, #26, .T. ) ;
#274 = ORIENTED_EDGE ( 'NONE', *, *, #26, .F. ) ;
#275 = ORIENTED_EDGE ( 'NONE', *, *, #6, .F. ) ;
#276 = ORIENTED_EDGE ( 'NONE', *, *, #13, .T. ) ;
#277 = ORIENTED_EDGE ( 'NONE', *, *, #56, .T. ) ;
#278 = ORIENTED_EDGE ( 'NONE', *, *, #34, .T. ) ;
#279 = ORIENTED_EDGE ( 'NONE', *, *, #46, .T. ) ;
#280 = ORIENTED_EDGE ( 'NONE', *, *, #6, .T. ) ;
#281 = ORIENTED_EDGE ( 'NONE', *, *, #55, .F. ) ;
#282 = ORIENTED_EDGE ( 'NONE', *, *, #42, .F. ) ;
#283 = LINE ( 'NONE', #139, #288 ) ;
#284 = CLOSED_SHELL ( 'NONE', ( #221, #225, #217, #216, #223, #224, #222, #219, #218, #220 ) ) ;
#285 = ORIENTED_EDGE ( 'NONE', *, *, #43, .F. ) ;
#286 = ORIENTED_EDGE ( 'NONE', *, *, #48, .F. ) ;
#287 = LINE ( 'NONE', #183, #328 ) ;
#288 = VECTOR ( 'NONE', #137, 39.37007874015748100 ) ;
#289 = ORIENTED_EDGE ( 'NONE', *, *, #10, .F. ) ;
#290 = CALENDAR_DATE ( 2010, 28, 6 ) ;
#291 = LOCAL_TIME ( 8, 20, 44.00000000000000000, #295 ) ;
#292 = DATE_AND_TIME ( #297, #291 ) ;
#293 = ORIENTED_EDGE ( 'NONE', *, *, #25, .F. ) ;
#294 = DATE_AND_TIME ( #290, #259 ) ;
#295 = COORDINATED_UNIVERSAL_TIME_OFFSET ( 6, 0, .BEHIND. ) ;
#296 = APPROVAL_PERSON_ORGANIZATION ( #264, #41, #88 ) ;
#297 = CALENDAR_DATE ( 2010, 28, 6 ) ;
#298 = ORIENTED_EDGE ( 'NONE', *, *, #42, .T. ) ;
#299 = ORIENTED_EDGE ( 'NONE', *, *, #43, .T. ) ;
#300 = ORIENTED_EDGE ( 'NONE', *, *, #46, .F. ) ;
#301 = ORIENTED_EDGE ( 'NONE', *, *, #28, .F. ) ;
#302 = ORIENTED_EDGE ( 'NONE', *, *, #34, .F. ) ;
#303 = ORIENTED_EDGE ( 'NONE', *, *, #45, .F. ) ;
#304 = ORIENTED_EDGE ( 'NONE', *, *, #13, .F. ) ;
#305 = ORIENTED_EDGE ( 'NONE', *, *, #44, .T. ) ;
#306 = ORIENTED_EDGE ( 'NONE', *, *, #25, .T. ) ;
#307 = ORIENTED_EDGE ( 'NONE', *, *, #17, .T. ) ;
#308 = VECTOR ( 'NONE', #195, 39.37007874015748100 ) ;
#309 = LINE ( 'NONE', #194, #308 ) ;
#310 = FACE_BOUND ( 'NONE', #241, .T. ) ;
#311 = LINE ( 'NONE', #175, #315 ) ;
#312 = LINE ( 'NONE', #151, #258 ) ;
#313 = CIRCLE ( 'NONE', #52, 0.1284999999999999500 ) ;
#314 = CYLINDRICAL_SURFACE ( 'NONE', #3, 0.1284999999999999200 ) ;
#315 = VECTOR ( 'NONE', #181, 39.37007874015748100 ) ;
#316 = FACE_BOUND ( 'NONE', #229, .T. ) ;
#317 = FACE_OUTER_BOUND ( 'NONE', #245, .T. ) ;
#318 = CYLINDRICAL_SURFACE ( 'NONE', #51, 0.1284999999999999200 ) ;
#319 = CYLINDRICAL_SURFACE ( 'NONE', #16, 0.1284999999999999200 ) ;
#320 = FACE_OUTER_BOUND ( 'NONE', #239, .T. ) ;
#321 = FACE_OUTER_BOUND ( 'NONE', #227, .T. ) ;
#322 = FACE_OUTER_BOUND ( 'NONE', #231, .T. ) ;
#323 = FACE_OUTER_BOUND ( 'NONE', #235, .T. ) ;
#324 = FACE_OUTER_BOUND ( 'NONE', #242, .T. ) ;
#325 = VECTOR ( 'NONE', #141, 39.37007874015748100 ) ;
#326 = CIRCLE ( 'NONE', #9, 0.1284999999999998600 ) ;
#327 = CIRCLE ( 'NONE', #47, 0.1284999999999998600 ) ;
#328 = VECTOR ( 'NONE', #202, 39.37007874015748100 ) ;
#329 = LINE ( 'NONE', #180, #338 ) ;
#330 = VECTOR ( 'NONE', #167, 39.37007874015748100 ) ;
#331 = LINE ( 'NONE', #179, #325 ) ;
#332 = LINE ( 'NONE', #157, #334 ) ;
#333 = LINE ( 'NONE', #171, #337 ) ;
#334 = VECTOR ( 'NONE', #172, 39.37007874015748100 ) ;
#335 = CIRCLE ( 'NONE', #24, 0.1284999999999999500 ) ;
#336 = LINE ( 'NONE', #156, #330 ) ;
#337 = VECTOR ( 'NONE', #146, 39.37007874015748100 ) ;
#338 = VECTOR ( 'NONE', #209, 39.37007874015748100 ) ;
#339 = LINE ( 'NONE', #159, #348 ) ;
#340 = LINE ( 'NONE', #203, #346 ) ;
#341 = LINE ( 'NONE', #149, #343 ) ;
#342 = VECTOR ( 'NONE', #147, 39.37007874015748100 ) ;
#343 = VECTOR ( 'NONE', #160, 39.37007874015748100 ) ;
#344 = LINE ( 'NONE', #207, #345 ) ;
#345 = VECTOR ( 'NONE', #206, 39.37007874015748100 ) ;
#346 = VECTOR ( 'NONE', #165, 39.37007874015748100 ) ;
#347 = CIRCLE ( 'NONE', #60, 0.1284999999999998600 ) ;
#348 = VECTOR ( 'NONE', #148, 39.37007874015748100 ) ;
#349 = VECTOR ( 'NONE', #144, 39.37007874015748100 ) ;
#350 = CIRCLE ( 'NONE', #59, 0.1284999999999999500 ) ;
#351 = LINE ( 'NONE', #177, #349 ) ;
#352 = CIRCLE ( 'NONE', #58, 0.1284999999999998600 ) ;
#353 = LINE ( 'NONE', #176, #342 ) ;
#354 = FACE_OUTER_BOUND ( 'NONE', #247, .T. ) ;
#355 = CIRCLE ( 'NONE', #22, 0.1284999999999999500 ) ;
#356 = FACE_OUTER_BOUND ( 'NONE', #240, .T. ) ;
#357 = FACE_BOUND ( 'NONE', #230, .T. ) ;
#358 = FACE_BOUND ( 'NONE', #238, .T. ) ;
#359 = FACE_OUTER_BOUND ( 'NONE', #233, .T. ) ;
#360 = FACE_OUTER_BOUND ( 'NONE', #249, .T. ) ;
#361 = CYLINDRICAL_SURFACE ( 'NONE', #18, 0.1284999999999999200 ) ;
#362 = LENGTH_MEASURE_WITH_UNIT ( LENGTH_MEASURE( 0.02539999999999999900 ), #64 );
#363 = APPROVAL_PERSON_ORGANIZATION ( #270, #19, #80 ) ;
#364 = PERSON_AND_ORGANIZATION ( #213, #365 ) ;
#365 = ORGANIZATION ( 'UNSPECIFIED', 'UNSPECIFIED', '' ) ;
#366 = COORDINATED_UNIVERSAL_TIME_OFFSET ( 6, 0, .BEHIND. ) ;
#367 = DATE_AND_TIME ( #369, #368 ) ;
#368 = LOCAL_TIME ( 8, 20, 44.00000000000000000, #366 ) ;
#369 = CALENDAR_DATE ( 2010, 28, 6 ) ;
#370 = APPROVAL_DATE_TIME ( #367, #19 ) ;
#371 = PERSON_AND_ORGANIZATION ( #213, #365 ) ;
#372 = COORDINATED_UNIVERSAL_TIME_OFFSET ( 6, 0, .BEHIND. ) ;
#373 = LOCAL_TIME ( 8, 20, 44.00000000000000000, #372 ) ;
#374 = CALENDAR_DATE ( 2010, 28, 6 ) ;
#375 = APPROVAL_PERSON_ORGANIZATION ( #378, #8, #83 ) ;
#376 = COORDINATED_UNIVERSAL_TIME_OFFSET ( 6, 0, .BEHIND. ) ;
#377 = DATE_AND_TIME ( #374, #373 ) ;
#378 = PERSON_AND_ORGANIZATION ( #213, #365 ) ;
#379 = ORIENTED_EDGE ( 'NONE', *, *, #29, .T. ) ;
#380 = ORIENTED_EDGE ( 'NONE', *, *, #32, .T. ) ;
#381 = ORIENTED_EDGE ( 'NONE', *, *, #45, .T. ) ;
#382 = ORIENTED_EDGE ( 'NONE', *, *, #54, .T. ) ;
#383 = ORIENTED_EDGE ( 'NONE', *, *, #32, .F. ) ;
#384 = ORIENTED_EDGE ( 'NONE', *, *, #44, .F. ) ;
#385 = ORIENTED_EDGE ( 'NONE', *, *, #33, .T. ) ;
#386 = LOCAL_TIME ( 8, 20, 44.00000000000000000, #376 ) ;
#387 = ORIENTED_EDGE ( 'NONE', *, *, #27, .F. ) ;
#388 = ORIENTED_EDGE ( 'NONE', *, *, #14, .T. ) ;
ENDSEC;
END-ISO-10303-21;
