ISO-10303-21;
HEADER;
FILE_DESCRIPTION (( 'STEP AP214' ),
    '1' );
FILE_NAME ('D071102_Flexure.STEP',
    '2022-02-04T17:29:01',
    ( '' ),
    ( '' ),
    'SwSTEP 2.0',
    'SolidWorks 2021',
    '' );
FILE_SCHEMA (( 'AUTOMOTIVE_DESIGN' ));
ENDSEC;

DATA;
#1 = AXIS2_PLACEMENT_3D ( 'NONE', #202, #240, #181 ) ;
#2 = CIRCLE ( 'NONE', #96, 0.2362204724409449064 ) ;
#3 =( NAMED_UNIT ( * ) PLANE_ANGLE_UNIT ( ) SI_UNIT ( $, .RADIAN. ) );
#4 = DIRECTION ( 'NONE',  ( 0.000000000000000000, 0.000000000000000000, -1.000000000000000000 ) ) ;
#5 = DIRECTION ( 'NONE',  ( 0.000000000000000000, 0.000000000000000000, 1.000000000000000000 ) ) ;
#6 = SURFACE_STYLE_FILL_AREA ( #193 ) ;
#7 = DIRECTION ( 'NONE',  ( -0.000000000000000000, -1.000000000000000000, -0.000000000000000000 ) ) ;
#8 = DIMENSIONAL_EXPONENTS ( 1.000000000000000000, 0.000000000000000000, 0.000000000000000000, 0.000000000000000000, 0.000000000000000000, 0.000000000000000000, 0.000000000000000000 ) ;
#9 = FACE_OUTER_BOUND ( 'NONE', #16, .T. ) ;
#10 = MECHANICAL_DESIGN_GEOMETRIC_PRESENTATION_REPRESENTATION (  '', ( #114 ), #162 ) ;
#11 = CARTESIAN_POINT ( 'NONE',  ( 0.000000000000000000, -3.922005039472767685, 0.000000000000000000 ) ) ;
#12 = CARTESIAN_POINT ( 'NONE',  ( 0.000000000000000000, 3.922005039472767685, 0.000000000000000000 ) ) ;
#13 = AXIS2_PLACEMENT_3D ( 'NONE', #61, #122, #84 ) ;
#14 = CARTESIAN_POINT ( 'NONE',  ( 0.000000000000000000, -4.015745196953083074, 0.000000000000000000 ) ) ;
#15 = PLANE ( 'NONE',  #107 ) ;
#16 = EDGE_LOOP ( 'NONE', ( #250 ) ) ;
#17 = AXIS2_PLACEMENT_3D ( 'NONE', #203, #159, #244 ) ;
#18 = ORIENTED_EDGE ( 'NONE', *, *, #118, .F. ) ;
#19 = UNCERTAINTY_MEASURE_WITH_UNIT (LENGTH_MEASURE( 1.000000000000000082E-05 ), #200, 'distance_accuracy_value', 'NONE');
#20 = APPLICATION_PROTOCOL_DEFINITION ( 'draft international standard', 'automotive_design', 1998, #59 ) ;
#21 = APPLICATION_CONTEXT ( 'automotive_design' ) ;
#22 = DIRECTION ( 'NONE',  ( 0.000000000000000000, -0.000000000000000000, 1.000000000000000000 ) ) ;
#23 = ORIENTED_EDGE ( 'NONE', *, *, #116, .F. ) ;
#24 = CARTESIAN_POINT ( 'NONE',  ( 0.000000000000000000, 0.000000000000000000, 0.000000000000000000 ) ) ;
#25 = DIRECTION ( 'NONE',  ( 0.000000000000000000, 1.000000000000000000, 0.000000000000000000 ) ) ;
#26 = ORIENTED_EDGE ( 'NONE', *, *, #118, .T. ) ;
#27 = DIRECTION ( 'NONE',  ( 0.000000000000000000, -1.000000000000000000, -0.000000000000000000 ) ) ;
#28 = VERTEX_POINT ( 'NONE', #72 ) ;
#29 = SURFACE_SIDE_STYLE ('',( #6 ) ) ;
#30 = CARTESIAN_POINT ( 'NONE',  ( 0.000000000000000000, 4.015745196953085738, -0.2362204724409449064 ) ) ;
#31 = DIRECTION ( 'NONE',  ( 0.000000000000000000, -0.000000000000000000, 1.000000000000000000 ) ) ;
#32 = FACE_OUTER_BOUND ( 'NONE', #170, .T. ) ;
#33 = AXIS2_PLACEMENT_3D ( 'NONE', #264, #153, #160 ) ;
#34 = FACE_OUTER_BOUND ( 'NONE', #184, .T. ) ;
#35 = PRESENTATION_LAYER_ASSIGNMENT (  '', '', ( #114 ) ) ;
#36 = AXIS2_PLACEMENT_3D ( 'NONE', #199, #151, #4 ) ;
#37 = AXIS2_PLACEMENT_3D ( 'NONE', #71, #144, #65 ) ;
#38 = AXIS2_PLACEMENT_3D ( 'NONE', #106, #25, #31 ) ;
#39 = ADVANCED_FACE ( 'NONE', ( #173, #102 ), #249, .F. ) ;
#40 = FACE_OUTER_BOUND ( 'NONE', #194, .T. ) ;
#41 = CIRCLE ( 'NONE', #206, 0.2362204724409449064 ) ;
#42 = PLANE ( 'NONE',  #76 ) ;
#43 = DIRECTION ( 'NONE',  ( 0.000000000000000000, 0.000000000000000000, 1.000000000000000000 ) ) ;
#44 = EDGE_LOOP ( 'NONE', ( #130 ) ) ;
#45 = AXIS2_PLACEMENT_3D ( 'NONE', #217, #27, #239 ) ;
#46 = ORIENTED_EDGE ( 'NONE', *, *, #259, .F. ) ;
#47 =( LENGTH_UNIT ( ) NAMED_UNIT ( * ) SI_UNIT ( $, .METRE. ) );
#48 = CARTESIAN_POINT ( 'NONE',  ( 0.000000000000000000, -4.394445984354657497, 0.000000000000000000 ) ) ;
#49 = CARTESIAN_POINT ( 'NONE',  ( 0.000000000000000000, -4.000745196953082505, 0.1732283464566938547 ) ) ;
#50 = CARTESIAN_POINT ( 'NONE',  ( 0.000000000000000000, 3.922005039472767685, -0.09448818897637888126 ) ) ;
#51 = VERTEX_POINT ( 'NONE', #113 ) ;
#52 = CIRCLE ( 'NONE', #33, 0.2212204724409421175 ) ;
#53 = UNCERTAINTY_MEASURE_WITH_UNIT (LENGTH_MEASURE( 1.000000000000000082E-05 ), #145, 'distance_accuracy_value', 'NONE');
#54 = PRODUCT ( 'D071102_Flexure', 'D071102_Flexure', '', ( #123 ) ) ;
#55 = EDGE_CURVE ( 'NONE', #28, #28, #41, .T. ) ;
#56 = EDGE_LOOP ( 'NONE', ( #175 ) ) ;
#57 = FACE_OUTER_BOUND ( 'NONE', #189, .T. ) ;
#58 = CYLINDRICAL_SURFACE ( 'NONE', #124, 0.2362204724409449064 ) ;
#59 = APPLICATION_CONTEXT ( 'automotive_design' ) ;
#60 = CONICAL_SURFACE ( 'NONE', #171, 0.2362204724409449064, 0.7853981633974232990 ) ;
#61 = CARTESIAN_POINT ( 'NONE',  ( 0.000000000000000000, -3.922005039472767685, 0.000000000000000000 ) ) ;
#62 = CARTESIAN_POINT ( 'NONE',  ( 0.000000000000000000, 4.000745196953082505, 0.000000000000000000 ) ) ;
#63 = LENGTH_MEASURE_WITH_UNIT ( LENGTH_MEASURE( 0.02539999999999999897 ), #119 );
#64 = DIRECTION ( 'NONE',  ( -0.000000000000000000, -1.000000000000000000, -0.000000000000000000 ) ) ;
#65 = DIRECTION ( 'NONE',  ( 0.000000000000000000, 0.000000000000000000, -1.000000000000000000 ) ) ;
#66 = EDGE_CURVE ( 'NONE', #135, #135, #188, .T. ) ;
#67 = CARTESIAN_POINT ( 'NONE',  ( 0.000000000000000000, 4.015745196953085738, 0.000000000000000000 ) ) ;
#68 =( NAMED_UNIT ( * ) PLANE_ANGLE_UNIT ( ) SI_UNIT ( $, .RADIAN. ) );
#69 = DIRECTION ( 'NONE',  ( 0.000000000000000000, 1.000000000000000000, 0.000000000000000000 ) ) ;
#70 = PLANE ( 'NONE',  #38 ) ;
#71 = CARTESIAN_POINT ( 'NONE',  ( 0.000000000000000000, 3.922005039472767685, 0.000000000000000000 ) ) ;
#72 = CARTESIAN_POINT ( 'NONE',  ( 0.000000000000000000, -4.015745196953083074, 0.2362204724409449064 ) ) ;
#73 = DIRECTION ( 'NONE',  ( 0.000000000000000000, 0.000000000000000000, -1.000000000000000000 ) ) ;
#74 = VERTEX_POINT ( 'NONE', #157 ) ;
#75 = AXIS2_PLACEMENT_3D ( 'NONE', #12, #243, #134 ) ;
#76 = AXIS2_PLACEMENT_3D ( 'NONE', #222, #216, #22 ) ;
#77 = UNCERTAINTY_MEASURE_WITH_UNIT (LENGTH_MEASURE( 1.000000000000000082E-05 ), #172, 'distance_accuracy_value', 'NONE');
#78 = EDGE_LOOP ( 'NONE', ( #46 ) ) ;
#79 = PRESENTATION_LAYER_ASSIGNMENT (  '', '', ( #89 ) ) ;
#80 =( NAMED_UNIT ( * ) SI_UNIT ( $, .STERADIAN. ) SOLID_ANGLE_UNIT ( ) );
#81 = DIRECTION ( 'NONE',  ( 0.000000000000000000, 0.000000000000000000, 1.000000000000000000 ) ) ;
#82 = ORIENTED_EDGE ( 'NONE', *, *, #182, .F. ) ;
#83 = CIRCLE ( 'NONE', #245, 0.1732283464566938547 ) ;
#84 = DIRECTION ( 'NONE',  ( 0.000000000000000000, 0.000000000000000000, 1.000000000000000000 ) ) ;
#85 = FILL_AREA_STYLE ('',( #261 ) ) ;
#86 = EDGE_LOOP ( 'NONE', ( #258 ) ) ;
#87 = FACE_BOUND ( 'NONE', #143, .T. ) ;
#88 = VERTEX_POINT ( 'NONE', #226 ) ;
#89 = STYLED_ITEM ( 'NONE', ( #97 ), #120 ) ;
#90 = DIRECTION ( 'NONE',  ( 0.000000000000000000, 0.000000000000000000, -1.000000000000000000 ) ) ;
#91 = VERTEX_POINT ( 'NONE', #50 ) ;
#92 =( GEOMETRIC_REPRESENTATION_CONTEXT ( 3 ) GLOBAL_UNCERTAINTY_ASSIGNED_CONTEXT ( ( #53 ) ) GLOBAL_UNIT_ASSIGNED_CONTEXT ( ( #145, #142, #80 ) ) REPRESENTATION_CONTEXT ( 'NONE', 'WORKASPACE' ) );
#93 = ADVANCED_FACE ( 'NONE', ( #57 ), #42, .T. ) ;
#94 = ORIENTED_EDGE ( 'NONE', *, *, #269, .T. ) ;
#95 = EDGE_LOOP ( 'NONE', ( #169 ) ) ;
#96 = AXIS2_PLACEMENT_3D ( 'NONE', #67, #100, #128 ) ;
#97 = PRESENTATION_STYLE_ASSIGNMENT (( #121 ) ) ;
#98 = CLOSED_SHELL ( 'NONE', ( #179, #229, #247, #211, #93, #161, #140, #39, #156, #255, #137 ) ) ;
#99 = COLOUR_RGB ( '',1.000000000000000000, 0.6431372549019607199, 0.05882352941176470507 ) ;
#100 = DIRECTION ( 'NONE',  ( 0.000000000000000000, 1.000000000000000000, 0.000000000000000000 ) ) ;
#101 = PRESENTATION_STYLE_ASSIGNMENT (( #263 ) ) ;
#102 = FACE_OUTER_BOUND ( 'NONE', #86, .T. ) ;
#103 = FACE_OUTER_BOUND ( 'NONE', #164, .T. ) ;
#104 = EDGE_CURVE ( 'NONE', #132, #132, #2, .T. ) ;
#105 = DIRECTION ( 'NONE',  ( 1.000000000000000000, 0.000000000000000000, 0.000000000000000000 ) ) ;
#106 = CARTESIAN_POINT ( 'NONE',  ( 0.2362204724409449064, -4.000745196953082505, 0.000000000000000000 ) ) ;
#107 = AXIS2_PLACEMENT_3D ( 'NONE', #268, #177, #180 ) ;
#108 = ORIENTED_EDGE ( 'NONE', *, *, #126, .F. ) ;
#109 = FACE_OUTER_BOUND ( 'NONE', #141, .T. ) ;
#110 = FACE_BOUND ( 'NONE', #166, .T. ) ;
#111 = LENGTH_MEASURE_WITH_UNIT ( LENGTH_MEASURE( 0.02539999999999999897 ), #47 );
#112 = VERTEX_POINT ( 'NONE', #208 ) ;
#113 = CARTESIAN_POINT ( 'NONE',  ( 0.000000000000000000, -4.394445984354657497, -0.2362204724409448509 ) ) ;
#114 = STYLED_ITEM ( 'NONE', ( #101 ), #167 ) ;
#115 = CIRCLE ( 'NONE', #213, 0.2362204724409448509 ) ;
#116 = EDGE_CURVE ( 'NONE', #51, #51, #115, .T. ) ;
#117 = ORIENTED_EDGE ( 'NONE', *, *, #104, .T. ) ;
#118 = EDGE_CURVE ( 'NONE', #112, #112, #149, .T. ) ;
#119 =( LENGTH_UNIT ( ) NAMED_UNIT ( * ) SI_UNIT ( $, .METRE. ) );
#120 = ADVANCED_BREP_SHAPE_REPRESENTATION ( 'D071102_Flexure', ( #167, #265 ), #136 ) ;
#121 = SURFACE_STYLE_USAGE ( .BOTH. , #150 ) ;
#122 = DIRECTION ( 'NONE',  ( 0.000000000000000000, 1.000000000000000000, 0.000000000000000000 ) ) ;
#123 = PRODUCT_CONTEXT ( 'NONE', #21, 'mechanical' ) ;
#124 = AXIS2_PLACEMENT_3D ( 'NONE', #204, #219, #127 ) ;
#125 = DIRECTION ( 'NONE',  ( 0.000000000000000000, 1.000000000000000000, 0.000000000000000000 ) ) ;
#126 = EDGE_CURVE ( 'NONE', #242, #242, #228, .T. ) ;
#127 = DIRECTION ( 'NONE',  ( 0.000000000000000000, 0.000000000000000000, -1.000000000000000000 ) ) ;
#128 = DIRECTION ( 'NONE',  ( 0.000000000000000000, 0.000000000000000000, -1.000000000000000000 ) ) ;
#129 = DIMENSIONAL_EXPONENTS ( 1.000000000000000000, 0.000000000000000000, 0.000000000000000000, 0.000000000000000000, 0.000000000000000000, 0.000000000000000000, 0.000000000000000000 ) ;
#130 = ORIENTED_EDGE ( 'NONE', *, *, #223, .F. ) ;
#131 = DIRECTION ( 'NONE',  ( 0.000000000000000000, 1.000000000000000000, 0.000000000000000000 ) ) ;
#132 = VERTEX_POINT ( 'NONE', #30 ) ;
#133 = CARTESIAN_POINT ( 'NONE',  ( 0.000000000000000000, 4.000745196953082505, 0.000000000000000000 ) ) ;
#134 = DIRECTION ( 'NONE',  ( 0.000000000000000000, 0.000000000000000000, -1.000000000000000000 ) ) ;
#135 = VERTEX_POINT ( 'NONE', #49 ) ;
#136 =( GEOMETRIC_REPRESENTATION_CONTEXT ( 3 ) GLOBAL_UNCERTAINTY_ASSIGNED_CONTEXT ( ( #77 ) ) GLOBAL_UNIT_ASSIGNED_CONTEXT ( ( #172, #3, #197 ) ) REPRESENTATION_CONTEXT ( 'NONE', 'WORKASPACE' ) );
#137 = ADVANCED_FACE ( 'NONE', ( #218, #147 ), #138, .T. ) ;
#138 = CONICAL_SURFACE ( 'NONE', #176, 0.2212204724409421175, 0.7853981633974415066 ) ;
#139 = ORIENTED_EDGE ( 'NONE', *, *, #55, .T. ) ;
#140 = ADVANCED_FACE ( 'NONE', ( #103, #155 ), #58, .T. ) ;
#141 = EDGE_LOOP ( 'NONE', ( #82 ) ) ;
#142 =( NAMED_UNIT ( * ) PLANE_ANGLE_UNIT ( ) SI_UNIT ( $, .RADIAN. ) );
#143 = EDGE_LOOP ( 'NONE', ( #94 ) ) ;
#144 = DIRECTION ( 'NONE',  ( -0.000000000000000000, -1.000000000000000000, -0.000000000000000000 ) ) ;
#145 =( CONVERSION_BASED_UNIT ( 'INCH', #63 ) LENGTH_UNIT ( ) NAMED_UNIT ( #220 ) );
#146 = DIRECTION ( 'NONE',  ( 0.000000000000000000, 0.000000000000000000, 1.000000000000000000 ) ) ;
#147 = FACE_BOUND ( 'NONE', #78, .T. ) ;
#148 = EDGE_LOOP ( 'NONE', ( #186 ) ) ;
#149 = CIRCLE ( 'NONE', #36, 0.2362204724409448509 ) ;
#150 = SURFACE_SIDE_STYLE ('',( #174 ) ) ;
#151 = DIRECTION ( 'NONE',  ( -0.000000000000000000, -1.000000000000000000, -0.000000000000000000 ) ) ;
#152 = FACE_OUTER_BOUND ( 'NONE', #56, .T. ) ;
#153 = DIRECTION ( 'NONE',  ( -0.000000000000000000, -1.000000000000000000, -0.000000000000000000 ) ) ;
#154 = MECHANICAL_DESIGN_GEOMETRIC_PRESENTATION_REPRESENTATION (  '', ( #89 ), #92 ) ;
#155 = FACE_OUTER_BOUND ( 'NONE', #238, .T. ) ;
#156 = ADVANCED_FACE ( 'NONE', ( #195, #109 ), #158, .F. ) ;
#157 = CARTESIAN_POINT ( 'NONE',  ( 0.000000000000000000, 4.000745196953082505, -0.2212204724409421175 ) ) ;
#158 = TOROIDAL_SURFACE ( 'NONE', #37, 0.1732283464566938547, 0.07874015748031495954 ) ;
#159 = DIRECTION ( 'NONE',  ( -0.000000000000000000, -1.000000000000000000, -0.000000000000000000 ) ) ;
#160 = DIRECTION ( 'NONE',  ( 0.000000000000000000, 0.000000000000000000, -1.000000000000000000 ) ) ;
#161 = ADVANCED_FACE ( 'NONE', ( #152 ), #234, .T. ) ;
#162 =( GEOMETRIC_REPRESENTATION_CONTEXT ( 3 ) GLOBAL_UNCERTAINTY_ASSIGNED_CONTEXT ( ( #19 ) ) GLOBAL_UNIT_ASSIGNED_CONTEXT ( ( #200, #68, #178 ) ) REPRESENTATION_CONTEXT ( 'NONE', 'WORKASPACE' ) );
#163 = PRODUCT_DEFINITION_CONTEXT ( 'detailed design', #59, 'design' ) ;
#164 = EDGE_LOOP ( 'NONE', ( #139 ) ) ;
#165 = ORIENTED_EDGE ( 'NONE', *, *, #55, .F. ) ;
#166 = EDGE_LOOP ( 'NONE', ( #108 ) ) ;
#167 = MANIFOLD_SOLID_BREP ( 'Chamfer1', #98 ) ;
#168 = APPLICATION_PROTOCOL_DEFINITION ( 'draft international standard', 'automotive_design', 1998, #21 ) ;
#169 = ORIENTED_EDGE ( 'NONE', *, *, #66, .T. ) ;
#170 = EDGE_LOOP ( 'NONE', ( #185 ) ) ;
#171 = AXIS2_PLACEMENT_3D ( 'NONE', #14, #227, #90 ) ;
#172 =( CONVERSION_BASED_UNIT ( 'INCH', #214 ) LENGTH_UNIT ( ) NAMED_UNIT ( #8 ) );
#173 = FACE_OUTER_BOUND ( 'NONE', #44, .T. ) ;
#174 = SURFACE_STYLE_FILL_AREA ( #85 ) ;
#175 = ORIENTED_EDGE ( 'NONE', *, *, #116, .T. ) ;
#176 = AXIS2_PLACEMENT_3D ( 'NONE', #62, #131, #236 ) ;
#177 = DIRECTION ( 'NONE',  ( 0.000000000000000000, -1.000000000000000000, -0.000000000000000000 ) ) ;
#178 =( NAMED_UNIT ( * ) SI_UNIT ( $, .STERADIAN. ) SOLID_ANGLE_UNIT ( ) );
#179 = ADVANCED_FACE ( 'NONE', ( #221, #198 ), #70, .T. ) ;
#180 = DIRECTION ( 'NONE',  ( 0.000000000000000000, 0.000000000000000000, -1.000000000000000000 ) ) ;
#181 = DIRECTION ( 'NONE',  ( 0.000000000000000000, 0.000000000000000000, -1.000000000000000000 ) ) ;
#182 = EDGE_CURVE ( 'NONE', #91, #91, #196, .T. ) ;
#183 = VERTEX_POINT ( 'NONE', #246 ) ;
#184 = EDGE_LOOP ( 'NONE', ( #257 ) ) ;
#185 = ORIENTED_EDGE ( 'NONE', *, *, #182, .T. ) ;
#186 = ORIENTED_EDGE ( 'NONE', *, *, #269, .F. ) ;
#187 = AXIS2_PLACEMENT_3D ( 'NONE', #192, #125, #81 ) ;
#188 = CIRCLE ( 'NONE', #232, 0.1732283464566938547 ) ;
#189 = EDGE_LOOP ( 'NONE', ( #18 ) ) ;
#190 = DIRECTION ( 'NONE',  ( 0.000000000000000000, 0.000000000000000000, -1.000000000000000000 ) ) ;
#191 = SHAPE_DEFINITION_REPRESENTATION ( #209, #120 ) ;
#192 = CARTESIAN_POINT ( 'NONE',  ( 0.000000000000000000, -4.000745196953082505, 0.000000000000000000 ) ) ;
#193 = FILL_AREA_STYLE ('',( #224 ) ) ;
#194 = EDGE_LOOP ( 'NONE', ( #26 ) ) ;
#195 = FACE_OUTER_BOUND ( 'NONE', #148, .T. ) ;
#196 = CIRCLE ( 'NONE', #75, 0.09448818897637888126 ) ;
#197 =( NAMED_UNIT ( * ) SI_UNIT ( $, .STERADIAN. ) SOLID_ANGLE_UNIT ( ) );
#198 = FACE_BOUND ( 'NONE', #95, .T. ) ;
#199 = CARTESIAN_POINT ( 'NONE',  ( 0.000000000000000000, 4.394445984354657497, 0.000000000000000000 ) ) ;
#200 =( CONVERSION_BASED_UNIT ( 'INCH', #111 ) LENGTH_UNIT ( ) NAMED_UNIT ( #129 ) );
#201 = PRODUCT_DEFINITION ( 'UNKNOWN', '', #230, #163 ) ;
#202 = CARTESIAN_POINT ( 'NONE',  ( 0.000000000000000000, 0.000000000000000000, 0.000000000000000000 ) ) ;
#203 = CARTESIAN_POINT ( 'NONE',  ( 0.000000000000000000, 0.000000000000000000, 0.000000000000000000 ) ) ;
#204 = CARTESIAN_POINT ( 'NONE',  ( 0.000000000000000000, 0.000000000000000000, 0.000000000000000000 ) ) ;
#205 = CARTESIAN_POINT ( 'NONE',  ( 0.000000000000000000, -4.000745196953082505, 0.2212204724409453926 ) ) ;
#206 = AXIS2_PLACEMENT_3D ( 'NONE', #260, #64, #146 ) ;
#207 = DIRECTION ( 'NONE',  ( 0.000000000000000000, 0.000000000000000000, 1.000000000000000000 ) ) ;
#208 = CARTESIAN_POINT ( 'NONE',  ( 0.000000000000000000, 4.394445984354657497, -0.2362204724409448509 ) ) ;
#209 = PRODUCT_DEFINITION_SHAPE ( 'NONE', 'NONE',  #201 ) ;
#210 = AXIS2_PLACEMENT_3D ( 'NONE', #11, #267, #207 ) ;
#211 = ADVANCED_FACE ( 'NONE', ( #252, #40 ), #241, .T. ) ;
#212 = EDGE_LOOP ( 'NONE', ( #165 ) ) ;
#213 = AXIS2_PLACEMENT_3D ( 'NONE', #48, #235, #190 ) ;
#214 = LENGTH_MEASURE_WITH_UNIT ( LENGTH_MEASURE( 0.02539999999999999897 ), #256 );
#215 = COLOUR_RGB ( '',1.000000000000000000, 0.6431372549019607199, 0.05882352941176470507 ) ;
#216 = DIRECTION ( 'NONE',  ( 0.000000000000000000, 1.000000000000000000, 0.000000000000000000 ) ) ;
#217 = CARTESIAN_POINT ( 'NONE',  ( 6.059997347418631508E-17, -4.394445984354656609, 0.000000000000000000 ) ) ;
#218 = FACE_OUTER_BOUND ( 'NONE', #262, .T. ) ;
#219 = DIRECTION ( 'NONE',  ( -0.000000000000000000, -1.000000000000000000, -0.000000000000000000 ) ) ;
#220 = DIMENSIONAL_EXPONENTS ( 1.000000000000000000, 0.000000000000000000, 0.000000000000000000, 0.000000000000000000, 0.000000000000000000, 0.000000000000000000, 0.000000000000000000 ) ;
#221 = FACE_OUTER_BOUND ( 'NONE', #237, .T. ) ;
#222 = CARTESIAN_POINT ( 'NONE',  ( 6.059997347418631508E-17, 4.394445984354656609, 0.000000000000000000 ) ) ;
#223 = EDGE_CURVE ( 'NONE', #183, #183, #231, .T. ) ;
#224 = FILL_AREA_STYLE_COLOUR ( '', #99 ) ;
#225 = CYLINDRICAL_SURFACE ( 'NONE', #1, 0.09448818897637888126 ) ;
#226 = CARTESIAN_POINT ( 'NONE',  ( 0.000000000000000000, 4.000745196953082505, -0.1732283464566938547 ) ) ;
#227 = DIRECTION ( 'NONE',  ( -0.000000000000000000, -1.000000000000000000, -0.000000000000000000 ) ) ;
#228 = CIRCLE ( 'NONE', #187, 0.2212204724409453926 ) ;
#229 = ADVANCED_FACE ( 'NONE', ( #9, #32 ), #225, .T. ) ;
#230 = PRODUCT_DEFINITION_FORMATION_WITH_SPECIFIED_SOURCE ( 'ANY', '', #54, .NOT_KNOWN. ) ;
#231 = CIRCLE ( 'NONE', #210, 0.09448818897637888126 ) ;
#232 = AXIS2_PLACEMENT_3D ( 'NONE', #233, #7, #5 ) ;
#233 = CARTESIAN_POINT ( 'NONE',  ( 0.000000000000000000, -4.000745196953082505, 0.000000000000000000 ) ) ;
#234 = PLANE ( 'NONE',  #45 ) ;
#235 = DIRECTION ( 'NONE',  ( -0.000000000000000000, -1.000000000000000000, -0.000000000000000000 ) ) ;
#236 = DIRECTION ( 'NONE',  ( 0.000000000000000000, 0.000000000000000000, 1.000000000000000000 ) ) ;
#237 = EDGE_LOOP ( 'NONE', ( #251 ) ) ;
#238 = EDGE_LOOP ( 'NONE', ( #23 ) ) ;
#239 = DIRECTION ( 'NONE',  ( 0.000000000000000000, 0.000000000000000000, -1.000000000000000000 ) ) ;
#240 = DIRECTION ( 'NONE',  ( -0.000000000000000000, -1.000000000000000000, -0.000000000000000000 ) ) ;
#241 = CYLINDRICAL_SURFACE ( 'NONE', #17, 0.2362204724409449064 ) ;
#242 = VERTEX_POINT ( 'NONE', #205 ) ;
#243 = DIRECTION ( 'NONE',  ( -0.000000000000000000, -1.000000000000000000, -0.000000000000000000 ) ) ;
#244 = DIRECTION ( 'NONE',  ( 0.000000000000000000, 0.000000000000000000, -1.000000000000000000 ) ) ;
#245 = AXIS2_PLACEMENT_3D ( 'NONE', #133, #69, #73 ) ;
#246 = CARTESIAN_POINT ( 'NONE',  ( 0.000000000000000000, -3.922005039472767685, 0.09448818897637888126 ) ) ;
#247 = ADVANCED_FACE ( 'NONE', ( #34, #87 ), #15, .T. ) ;
#248 = PRODUCT_RELATED_PRODUCT_CATEGORY ( 'part', '', ( #54 ) ) ;
#249 = TOROIDAL_SURFACE ( 'NONE', #13, 0.1732283464566938547, 0.07874015748031495954 ) ;
#250 = ORIENTED_EDGE ( 'NONE', *, *, #223, .T. ) ;
#251 = ORIENTED_EDGE ( 'NONE', *, *, #126, .T. ) ;
#252 = FACE_OUTER_BOUND ( 'NONE', #254, .T. ) ;
#253 = ORIENTED_EDGE ( 'NONE', *, *, #104, .F. ) ;
#254 = EDGE_LOOP ( 'NONE', ( #117 ) ) ;
#255 = ADVANCED_FACE ( 'NONE', ( #110, #266 ), #60, .T. ) ;
#256 =( LENGTH_UNIT ( ) NAMED_UNIT ( * ) SI_UNIT ( $, .METRE. ) );
#257 = ORIENTED_EDGE ( 'NONE', *, *, #259, .T. ) ;
#258 = ORIENTED_EDGE ( 'NONE', *, *, #66, .F. ) ;
#259 = EDGE_CURVE ( 'NONE', #74, #74, #52, .T. ) ;
#260 = CARTESIAN_POINT ( 'NONE',  ( 0.000000000000000000, -4.015745196953083074, 0.000000000000000000 ) ) ;
#261 = FILL_AREA_STYLE_COLOUR ( '', #215 ) ;
#262 = EDGE_LOOP ( 'NONE', ( #253 ) ) ;
#263 = SURFACE_STYLE_USAGE ( .BOTH. , #29 ) ;
#264 = CARTESIAN_POINT ( 'NONE',  ( 0.000000000000000000, 4.000745196953082505, 0.000000000000000000 ) ) ;
#265 = AXIS2_PLACEMENT_3D ( 'NONE', #24, #43, #105 ) ;
#266 = FACE_OUTER_BOUND ( 'NONE', #212, .T. ) ;
#267 = DIRECTION ( 'NONE',  ( 0.000000000000000000, 1.000000000000000000, 0.000000000000000000 ) ) ;
#268 = CARTESIAN_POINT ( 'NONE',  ( 0.2362204724409449064, 4.000745196953082505, 0.000000000000000000 ) ) ;
#269 = EDGE_CURVE ( 'NONE', #88, #88, #83, .T. ) ;
ENDSEC;
END-ISO-10303-21;
